Silverstein - Hear Me Out Chords & Tabs

 

Hear Me Out Chords & Tabs

Silverstein Chords & Tabs

Version: 2 Type: Tab 0 ratings
1 star 2 stars 3 stars 4 stars 5 stars
comments

Hear Me Out Tab

INTRO:                                                              (x5)
e|---------------------------------------------------------------------|
B|---------------------------------------------------------------------|
G|---------------------------------------------------------------------|
D|---------4-4-4--------------4-4------------2-2-2--------------2-2----|
A|---2-2-2-------5-5-5--2-2-2-----5-5--4-4-4-------5-5-5--4-4-4-----5-5|
E|---------------------------------------------------------------------|
P.M. . . . . . . . . .  . . . . . . .  . . . . . . . . .  . . . . . . .
                                                                    (x1)
e|---------------------------------------------------------------------|
B|---------------------------------------------------------------------|
G|---------------------------------------------------------------------|
D|---------4-4-4--------------4-4------------2-2-2--------------2-2----|
A|---2-2-2-------5-5-5--2-2-2-----5-5--4-4-4-------5-5-5--4-4-4-----5-5|
E|---------------------------------------------------------------------|
P.M. . . . . . . . . .  . . . . . . .  . . . . . . . . .   

Not: I'm also ADDING the BREAKDOWN since the last tab I submitted I made a mistake on it:
e|---------------------------------------|
B|---------------------------------------|
G|-------11-9-7-6h7-6---9-7-6-7----------|
D|--7/9---------------9---------4--------|(x4)
A|--------------------------------5-4----|
E|------------------------------------5--|


Email: ArmyOfRohan@yahoo.com

[ Tab from: http://www.guitartabs.cc/tabs/s/silverstein/hear_me_out_tab_ver_2.html ]
Comments