Silverstein - Friends In Fall River Chords & Tabs

 

Friends In Fall River Chords & Tabs

Silverstein Chords & Tabs

Version: 1 Type: Bass Tab 0 ratings
1 star 2 stars 3 stars 4 stars 5 stars
comments

Friends In Fall River Bass Tab

   
Band - Silverstein
Song - Friends In Fall River
Tabber - 555_Maggot_666
Tuning - Standard (E,A,D,G)

Intro
G|---------------------------------|
D|---------------------------------| x2
A|-2222222-4444444-0000000-2222222-|
E|---------------------------------|

G|-------------------------|
D|-------------------------|
A|-2222222-4444444-0000000-|
E|-------------------------|

Chorus
G|-------------------------------|
D|-------------------------------| x4
A|-22-00--44-00--22-00--22-00-44-|
E|-------------------------------|

Verse
G|----------------------------------------------------------------------|
D|----------------------------------------------------------------------| x2
A|-2222222222222222-4444444444444444-0000000000000000-------------------|
E|----------------------------------------------------22222222-00000000-|

Chrous

Verse
G|---------------------------------|
D|---------------------------------| x3
A|-2222222-4444444-0000000-2222222-|
E|---------------------------------|
[ Tab from: http://www.guitartabs.cc/tabs/s/silverstein/friends_in_fall_river_btab.html ]
G|-------------------------|
D|-------------------------|
A|-2222222-4444444-0000000-|
E|-------------------------|

Chorus
G|-------------------------------|
D|-------------------------------| x3
A|-22-00--44-00--22-00--22-00-44-|
E|-------------------------------|

G|--------------------------------|
D|--------------------------------| 
A|-22-00--44-00--22-00--22-00-----|
E|----------------------------00~-|

Bridge
G|-----------------------------------------------------------------------|
D|-----------------------------------------------------------------------| x2
A|-4444444444444444-------------------0000000000000000-77777777-66666666-|
E|------------------2222222222222222-------------------------------------|

G|--------------------------------------------------------|
D|----------------------------9-77777777777777-6-99999999-|
A|-444444444444-6-77777777777-----------------------------|
E|--------------------------------------------------------|

G|--------------------------------------------------------------------------|
D|-------------------------------------------------------------------------| 
A|-4444444444444444-------------------0000000000000000-77777777-66666666-4~-|
E|------------------2222222222222222----------------------------------------|

Have fun!
Comments