Silverstein - Discovring The Waterfront Chords & Tabs

 

Discovring The Waterfront Chords & Tabs

Silverstein Chords & Tabs

Version: 1 Type: Tab 0 ratings
1 star 2 stars 3 stars 4 stars 5 stars
comments

Discovring The Waterfront Tab

   
-------------------------------------------------------------------------------  	 		     
Discovering the Waterfront - Silverstein
-------------------------------------------------------------------------------
Tabbed by: Pedro Orellana. 

This is my first tab, I know there are mistakes, email me =), 

Gt.2 is incomplete.
           
This CD is awesome please support Silverstein and buy it!!!

Email: Pedrox88@hotmail.com

Tuning: Standard

  
  Intro x 2                                            2nd time
e|---------0---------0---------0---------0---------|---0---------------------|
B|-------3---------3---------3---------3-----------|---3---------------------|
G|-----0---------0---------0---------0-------------|---0---------------------|
D|---4---------4---------4---------4---------------|---4---------------------| 
A|-2---------0-------------------------------------|---x---------------------|
E|---------------------3---------3-----------------|---3---------------------|
   
  Verse I and II  x 4
e|---------0---------0---------0---------0-----------------------------------|
B|-------3---------3---------3---------3-------------------------------------|
G|-----0---------0---------0---------0---------------------------------------|
D|---4---------4---------4---------4-----------------------------------------| 
A|-2---------0---------------------------------------------------------------|
E|---------------------3---------3-------------------------------------------|
   Verse cont.
e|---------0---------0---------0---------0-------------0---------0----------0-|
B|-------3---------3---------3---------3-------------3---------3----------3---|
G|-----0---------0---------0---------0-------------0---------0---------0------|
D|---4---------4---------4---------4-------------4---------4---------4--------|
A|----------------------------------------------------------------------------|
E|-0---------0---------0---------0---------0-2/3---------3---------3----------|

   Chorus x 4
e|---------------------------------------------------------------------------|
B|---------------------------------------------------------------------------|
G|---------------------------------------------12-12-12-12-12----------------|
D|--9-9-9-9-9--12-12-12-12-12--14-14-14-14-14--12-12-12-12-12----------------| 
A|--9-9-9-9-9--12-12-12-12-12--14-14-14-14-14--10-10-10-10-10----------------|
E|--7-7-7-7-7--10-10-10-10-10--12-12-12-12-12--------------------------------|

   Bridge Gt.1  x 4
e|----------------------------------------------------------------------------|
B|----------------------------------------------------------------------------|
G|----------------------------------------------------------------------------|
D|-5-5-5-5-5-5-5-5--7-7-7-7-7-7-7-7--9-9-9-9-9-9-9-9--12-12-12-12-12-12-12-12-| 
A|-5-5-5-5-5-5-5-5--7-7-7-7-7-7-7-7--9-9-9-9-9-9-9-9--12-12-12-12-12-12-12-12-|
E|-3-3-3-3-3-3-3-3--5-5-5-5-5-5-5-5--7-7-7-7-7-7-7-7--10-10-10-10-10-10-10-10-|
[ Tab from: http://www.guitartabs.cc/tabs/s/silverstein/discovring_the_waterfront_tab.html ]
    Bridge Gt.2  x 4
e|---------------------------------------------------------------------------|
B|---------------------------------------------------------------------------|
G|---11/12-11-------11-------11----------------------------------------------|
D|------------12-12----12-12-------------------------------------------------| 
A|---------------------------------------------------------------------------|
E|---------------------------------------------------------------------------|
  
  Bridge cont. Gt.1 listen to the song for strumming, not sure.  x 4
e|---------------------------------------------------------------------------|
B|---------------------------------------------------------------------------|
G|---------------------------------------------------------------------------|
D|---------------------------------------------------------------------------| 
A|--5555-7777-10101010-12-12-12-12-------------------------------------------| 
E|--3333-5555-7-7-7-7--10-10-10-10-------------------------------------------|

   Bridge cont. Gt2. X 2
e|---------------------------------------------------------------------------|
B|------------15-15-----------------------------15-15---------15-------------|
G|--12/11/12--------12/11/12/11-11----12/11/12--------12/11------------------|
D|---------------------------------------------------------------------------|
A|---------------------------------------------------------------------------|
E|---------------------------------------------------------------------------|

e|---------------------------------------------------------------------------|
B|------------15-15-----------------------------15/17------------------------|
G|--12/11/12--------12/11/12/11-11----12/11/12-------------------------------|
D|---------------------------------------------------------------------------|
A|---------------------------------------------------------------------------|
E|---------------------------------------------------------------------------|

e|---------------------------------------------------------------------------|
B|------------15-15-----------------------------15-15--------15--------------|
G|--12/11/12--------12/11/12/11-11----12/11/12---------12/11-----------------|
D|---------------------------------------------------------------------------|
A|---------------------------------------------------------------------------|
E|---------------------------------------------------------------------------|

e|---------------------------------------------------------------------------|
B|------------15-15-----------------------------15--17/18/19-----------------|
G|--12/11/12--------12/11/12/11-11----12/11/12-------------------------------|
D|---------------------------------------------------------------------------|
A|---------------------------------------------------------------------------|
E|---------------------------------------------------------------------------|

  Chorus x 7
e|---------------------------------------------------------------------------|
B|---------------------------------------------------------------------------|
G|---------------------------------------------12-12-12-12-12----------------|
D|--9-9-9-9-9--12-12-12-12-12--14-14-14-14-14--12-12-12-12-12----------------| 
A|--9-9-9-9-9--12-12-12-12-12--14-14-14-14-14--10-10-10-10-10----------------|
E|--7-7-7-7-7--10-10-10-10-10--12-12-12-12-12--------------------------------|



| /  slide up
| \  slide down
| h  hammer-on
| p  pull-off
| ~  vibrato
| +  harmonic
| x  Mute note
===============================================================================
Comments