Silverstein - Call It Karma Chords & Tabs

 

Call It Karma Chords & Tabs

Silverstein Chords & Tabs

Version: 2 Type: Tab

Call It Karma Tab

Artist: Silverstein
Album: Discovering the Waterfront
Title: Call It Karma
Email: awdf_lead_dan@yahoo.com
Tuning: Standard


This song is quite good.... very easy to play....
this my first time to make a tab..... but i think this is
97% correct in chords and solo....


verse:

   Blame it on the weather.......
e|----------------------------------------------------||
b|----------------------------------------------------||
g|----------------------------------------------------||
d|---3-3-3-3-3-3-3-3-3-3------7-7-7-7-7-7-7-7-7-7-----||
a|---3-3-3-3-3-3-3-3-3-3------7-7-7-7-7-7-7-7-7-7-----||
E|---1-1-1-1-1-1-1-1-1-1------5-5-5-5-5-5-5-5-5-5-----||
 |------------this part is 4 times--------------------||


Refrain:


e|-----------------------------------------------------||
b|-----------------------------------------------------||
g|---7-7-7-7-7----7-7-7-7-7----------------------------||
d|---7-7-7-7-7----5-5-5-5-5----7-7-7-7-7-7-7-7-7-7-----||
a|---5-5-5-5-5----3-3-3-3-3----7-7-7-7-7-7-7-7-7-7-----||
E|-----------------------------5-5-5-5-5-5-5-5-5-5-----||
 |-----just figure out how to do the stumming----------||


Verse 2:

verse:

   Blame it on the weather.......
e|----------------------------------------------------||
b|----------------------------------------------------||
g|----------------------------------------------------||
d|---3-3-3-3-3-3-3-3-3-3------7-7-7-7-7-7-7-7-7-7-----||
a|---3-3-3-3-3-3-3-3-3-3------7-7-7-7-7-7-7-7-7-7-----||
E|---1-1-1-1-1-1-1-1-1-1------5-5-5-5-5-5-5-5-5-5-----||
 |------------this part is 4 times--------------------||


Refrain:


e|-----------------------------------------------------||
b|-----------------------------------------------------||
g|---7-7-7-7-7----7-7-7-7-7----------------------------||
d|---7-7-7-7-7----5-5-5-5-5----7-7-7-7-7-7-7-7-7-7-----||
a|---5-5-5-5-5----3-3-3-3-3----7-7-7-7-7-7-7-7-7-7-----||
E|-----------------------------5-5-5-5-5-5-5-5-5-5-----||
 |-----just figure out how to do the stumming----------||


Chorus:

Refrain:


e|-----------------------------------------------------||
b|-----------------------------------------------------||
g|---7-7-7-7-7----7-7-7-7-7----------------------------||
d|---7-7-7-7-7----5-5-5-5-5----7-7-7-7-7-7-7-7-7-7-----||
a|---5-5-5-5-5----3-3-3-3-3----7-7-7-7-7-7-7-7-7-7-----||
E|-----------------------------5-5-5-5-5-5-5-5-5-5-----||
 |---------------4 times at this part------------------||


Solo:

[ Tab from: http://www.guitartabs.cc/tabs/s/silverstein/call_it_karma_tab_ver_2.html ]
e|---------------------------------------------------------|
b|------5h6p5-5h6p5-------5h6p5-5h6h8--8-6-5-8-6-5---6-----|
g|----5-------------5---5--------------------------5---5---|
d|--3-----------------3------------------------------------|
a|---------------------------------------------------------|
E|---------------------------------------------------------|

e|---\8-7---\8-7---7---15-13-12-15-13-12-15-13-12-15-13-12-15-13-12-15-13-12-|
b|--------6------8-----------------------------------------------------------|
g|---------------------------------------------------------------------------|
d|---------------------------------------------------------------------------|
a|---------------------------------------------------------------------------|
E|---------------------------------------------------------------------------|


Refrain:


e|-----------------------------------------------------||
b|-----------------------------------------------------||
g|---7-7-7-7-7----7-7-7-7-7----------------------------||
d|---7-7-7-7-7----5-5-5-5-5----7-7-7-7-7-7-7-7-7-7-----||
a|---5-5-5-5-5----3-3-3-3-3----7-7-7-7-7-7-7-7-7-7-----||
E|-----------------------------5-5-5-5-5-5-5-5-5-5-----||
 |-----just figure out how to do the stumming----------||


Chorus:


e|---------------------------------------------------||
b|---------------------------------------------------||
g|---7-7-7-7-7----7-7-7-7-7--------------------------||
d|---7-7-7-7-7----5-5-5-5-5----7-7-7-7-7-7-7-7-7-7---||
a|---5-5-5-5-5----3-3-3-3-3----7-7-7-7-7-7-7-7-7-7---||
E|-----------------------------5-5-5-5-5-5-5-5-5-5---||

bridged:

e|---------------------------------------------------||
b|---------------------------------------------------||
g|---------------------------------------------------||  This is 8 TIMES
d|---000-5-00-4-00-5-00-4-00-5-----------------------||
a|---------------------------------------------------||
E|---------------------------------------------------||


e|---------------------------------------------------||
b|-------------------------8-8-8-8-8-8-8-8-8-8-8-----||
g|-----7-----7-----7---------------------------------||  This is 8 TIMES
d|-----7-----7-----7---------------------------------||
a|-----5--X--5--X--5---------------------------------||
E|---------------------------------------------------||


e|-----------------------------------------------------------||
b|-----------------------------------------------------------||
g|--------------------------------------7-7-7-7--5-5-5-5-----||
d|---3-3-3-3-3-3-3-3---7-7-7-7-7-7-7----7-7-7-7--5-5-5-5-----||
A|---3-3-3-3-3-3-3-3---7-7-7-7-7-7-7----5-5-5-5--3-3-3-3-----||
E|---1-1-1-1-1-1-1-1---5-5-5-5-5-5-5-------------------------||
 |----------REFEAT UNLIT DONE USING THE SAME CHORDS----------||

THE END


THN GUYS PAKI RATE NLANG POE SLAMAT............
ROK ON............. PUNK NOT DEAD.............
EMAIL ME IF ANY CORRECTION...... THNX