Silverstein - Call It Karma Chords & Tabs

 

Call It Karma Chords & Tabs

Silverstein Chords & Tabs

Version: 1 Type: Tab 0 ratings
1 star 2 stars 3 stars 4 stars 5 stars
comments

Call It Karma Tab

Awesome song.. gotta love the band

*Standard tuning*

*_Gt.1
e|---------------------------------------------------------/8-7---/8-7----|
b|-----5h6p5-5h6p5---------5h6p5-5h6p8--8-5-6-8-5-6---6--------6------8---|
g|---5-------------5----5---------------------------5---5-----------------|
d|-3------------------2---------------------------------------------------|
a|------------------------------------------------------------------------|
e|------------------------------------------------------------------------|

                                              fast triplets
e|-8-7-7h8-10-8-7---7------8-5---8-5---8-5----8-5--8-5--8-5--8-5----------|
b|----------------8------------8-----8-----8---- 8----8----8----8---------|
g|------------------------------------------------------------------------|
d|------------------------------------------------------------------------|
a|------------------------------------------------------------------------|
e|------------------------------------------------------------------------|
[ Tab from: http://www.guitartabs.cc/tabs/s/silverstein/call_it_karma_tab.html ]
*_Gt.2
e|----3h5-3-3h5-3---------3h5-3h5-8--8-5---8-5-----------/12-10----/12-10--|
b|--5-------------5-----5----------------8-----8-5-/8-5---------10-------13|
g|-5------------------5----------------------------------------------------|
d|-------------------------------------------------------------------------|
a|-------------------------------------------------------------------------|
e|-------------------------------------------------------------------------|

                                 triplets          very fast
e|-/12-10-10h12-13-12-10----10---15-13-12-15-13-12-15-13-12-15-13-12---|etc.
b|-----------------------13------------------------------------------------|
g|-------------------------------------------------------------------------|
d|-------------------------------------------------------------------------|
a|-------------------------------------------------------------------------|
e|-------------------------------------------------------------------------|


that shold be 100% if there are no typos... have fun!
Comments