Silverstein - Already Dead Chords & Tabs

 

Already Dead Chords & Tabs

Silverstein Chords & Tabs

Version: 3 Type: Tab

Already Dead Tab

   
Artist: Silverstein
Album: Discovering The Waterfront
Title: Already Dead
Email: awdf_lead_dan@yahoo.com
Tabber: Dan Gian Dimayacyac

Tuning: Standard "E a d g b E"

hey guy im back!!!! there another tab of silverstein.....
this song called Already Dead.....
this song is quite easy to play.....

hi nga pla sa mga ka banda koH!!!! take care olweizzz!!! luv u guysss


Intro:

e|----------------------------------------------||
b|----------------------------------------------||
g|----------------------------------------------||
d|-------------------6---6------7---7--4---4----||
a|---4--6-7--4--6-7----7---7--6---6------6---4--||
E|----------------------------------------------||
 |------------------1st part--------------------|


e|----------------------------------------------||
b|----------------------------------------------||
g|----------------------------------------------||
d|-------6-7----6-7--4h6---4--------------------||
a|----4-------4----------7---7-6-4-6-7----------||
E|----------------------------------------------||
 |------------------2nd part--------------------|

e|---------------------------------------------------------------------||
b|------6----6---8------6-----6--6-------------------------------------||
g|---------------------------------------------------------------------||
d|---9-----9---------9-----9---------9-----9---------9-----7h9--6--4---||
a|---------------------------------------------------------------------||
E|---------------------------------------------------------------------||
 |------------------------------3rd Part-------------------------------|


verse:

Part 1 & 2 of into is continues playing!!!

Rhythm Verse:
[ Tab from: http://www.guitartabs.cc/tabs/s/silverstein/already_dead_tab_ver_3.html ]
e|---------------------------------------------------||
b|---------------------------------------------------||
g|---------------------------------------------------||
d|---9-9---5-5---7-7---------------------------------||
a|---9-9---5-5---7-7---------------------------------||
E|---7-7---3-3---5-5---------------------------------||

Refrain:

Using the 3rd part of intro!!!

e|---------------------------------------------------||
b|---------------------------------------------------||
g|---------------------------------------------------||
d|----7-7-7-7-7-7-7-7-7-7-7-7-7-7-7-7----------------||
a|----7-7-7-7-7-7-7-7-7-7-7-7-7-7-7-7----------------||
E|----5-5-5-5-5-5-5-5-5-5-5-5-5-5-5-5----------------||


Chorus

e|------------------------------------------------------||
b|------------------------------------------------------||
g|------------------------------------------------------||
d|----9-9-9-9----5-5-5-5----7-7-7-7-7-7-7-7-7-7---------||
a|----9-9-9-9----5-5-5-5----7-7-7-7-7-7-7-7-7-7---------||
E|----7-7-7-7----3-3-3-3----5-5-5-5-5-5-5-5-5-5---------||

Bridge

e|-------------------------------------------------------------------------||
b|-------------------------------------------------------------------------||
g|-------------------------------------------------------------------------||
d|--9-9--9-9--5--9-9--5-5--9-9--5-5--7--9-9--5-5--7-7--9-9--5-5--7-7--7-7--||
a|--9-9--9-9--5--9-9--5-5--9-9--5-5--7--9-9--5-5--7-7--9-9--5-5--7-7--7-7--||
E|--7-7--7-7--3--7-7--3-3--7-7--3-3--5--7-7--3-3--5-5--7-7--3-3--5-5--5-5--||

Chorus

Outro

e|---------------------------------------||
b|---------------------------------------||
g|---------------------------------------||
d|---9-9-9-9-9-9---11-11-11-11-11-11-----||
a|---9-9-9-9-9-9---11-11-11-11-11-11-----||
E|---7-7-7-7-7-7----9--9--9--9--9--9-----||


e|-------||
b|-------||
g|-------||
d|--9-9--||
a|--9-9--||
E|--7-7--||


guys gudluck!!!! its very easy to play!!!! just listen to the song and
figure out the sequence!!!!
thx guy!!!! plzzzzzz rate this tab!!!
just email me if any corretion you thing its terribly wrong!!!!
i have other tab of silverstein called Call It Karma!!!
---------------------------ROK ON-------------------------