Silverchair - Without You Chords & Tabs

 

Without You Chords & Tabs

Silverchair Chords & Tabs

Version: 3 Type: Tab 0 ratings
1 star 2 stars 3 stars 4 stars 5 stars
comments

Without You Tab

   
#----------------------------------PLEASE NOTE---------------------------------#
#This file is the author's own work and represents their interpretation of the #
#song. You may only use this file for private study, scholarship, or research. #
#------------------------------------------------------------------------------#

Song: Without You
Band: Silverchair
Album: Diorama
Tabbed by arlen b, 4/12/02, revised 4/05/03
E-Mail: kingoftheeskimos@yahoo.ca
Website: http://www.geocities.com/kingoftheeskimos
 
Tuning: Open Db5 (Db-Ab-Db-Ab-Db-Db)
 
Intro/Verse:
Db---------------------------------------------------------
Db---------12-12-12-----12--12---------11-11-11-----11—-11-
Ab---------------------------------------------------------
Db--0---0--12-12-12-0---12--12--0---0—-11-11-11-0---11—-11-
Ab--0---0--0--0--0--0---0---0---0---0--0--0--0--0---0---0--
Db--0---0--0--0--0--0---0---0---0---0--0--0--0--0---0---0—-

 
Pre Chorus:
Db---------------------------------------------------------
Db-------5----------4----------0----------0----------------
Ab----------7----------5----------0----------0-------------
Db--0--0---------------------------------------------------
Ab-------------0--0-------4--4-----------------------------
Db-----------------------------------5--5----------------—-

 
Db---------------------------------------------------------
Db-------5----------4----------0----------0--------5--5-5-5
Ab----------7----------5----------0----------0-----5--5-5-5
Db--0--0----------------------------------------5--5--5-5-5
Ab-------------0--0-------4--4---------------------5--5-5-5
Db-----------------------------------5--5----------5--5-5—5

 
(Strumming pattern not indicated)
Db---------------------------------------------------------
Db---------------------------------------------------------
Ab---------------------------------------------------------
Db--0--2--5--7---------------------------------------------
Ab--0--2--5--7---------------------------------------------
Db--0--2--5--7-------------------------------------------—-
 
Chorus:
Guitar 1: (Strumming pattern not indicated)
Db---------------------------------------------------------
Db---------------------------------------------------------
Ab---------------------------------------------------------
Db--0--7--5--7--0--7--5--7--0--7--5--7--9----5----9----5---
Ab--0--7--5--7--0--7--5--7--0--7--5--7--9----5----9----5---
Db--0--7--5--7--0--7--5--7--0--7--5--7--9----5----9----5-—-
 
Guitar 2: (Strumming pattern not indicated)
Db---------------------------------------------------------
Db---------------------------------------------------------
Ab-----7--5--7-----7--5--7-----7--5--7--9----5----9----5---
Db--7-----------7-----------7------------------------------
Ab-----7--5--7-----7--5--7-----7--5--7--9----5----9----5---
Db--7-----------7-----------7----------------------------—-

 
Post Chorus:
Db---------------------------------------------------------
Db---------------------------------------------------------
Ab---------5--5--5------5---5----------4--4--4------4---4--
Db--0---0-----------0-----------0---0—----------0----------
Ab--0---0--5--5--5--0---5---5---0---0--4--4--4--0---4---4--
Db--0---0--0--0--0--0---0---0---0---0--0--0--0--0---0---0—-
 
Db---------------------------------------------------------
Db---------------------------------------------------------
Ab---------5--5--5------5---5----------5--5--5------5---5--
Db--0---0-----------0-----------0---0—----------0----------
Ab--0---0--5--5--5--0---5---5---0---0--5--5--5--0---5---5--
Db--0---0--0--0--0--0---0---0---0---0--0--0--0--0---0---0—-
 
Verse 2: as first verse
[ Tab from: http://www.guitartabs.cc/tabs/s/silverchair/without_you_tab_ver_3.html ]
 
Pre Chorus
 
Chorus:
Guitar 1: (Strumming pattern not indicated)
Db---------------------------------------------------------
Db---------------------------------------------------------
Ab---------------------------------------------------------
Db--0--7--5--7--0--7--5--7--0--7--5--7--9----5----4----5---
Ab--0--7--5--7--0--7--5--7--0--7--5--7--9----5----4----5---
Db--0--7--5--7--0--7--5--7--0--7--5--7--9----5----4----5-—-
 
Guitar 2: (Strumming pattern not indicated)
Db---------------------------------------------------------
Db---------------------------------------------------------
Ab-----7--5--7-----7--5--7-----7--5--7--9----5----4----5---
Db--7-----------7-----------7------------------------------
Ab-----7--5--7-----7--5--7-----7--5--7--9----5----4----5---
Db--7-----------7-----------7----------------------------—-

 
Bridge: (Strumming pattern not indicated)
Db---------------------------------------------------------
Db---------------------------------------------------------
Ab---------------------------------------------------------
Db--9--7--5--0--9--7--5--0--9--7--5--0--9--7--5--0---------
Ab--9--7--5--0--9--7--5--0--9--7--5--0--9--7--5--0---------
Db--9--7--5--0--9--7--5--0--9--7--5--0--9--7--5--0-------—-

 
Db---------------------------------------------------------
Db------------------------5---5-5--------------------------
Ab------------------------5---5-5--------------------------
Db--9--7--5--0--9--7--5---5---5-5--------------------------
Ab--9--7--5--0--9--7--5---5---5-5--------------------------
Db--9--7--5--0--9--7--5---5---5-5------------------------—-
Blooming like winter
 
Chorus:
Guitar 1: (Strumming pattern not indicated)
Db---------------------------------------------------------
Db---------------------------------------------------------
Ab---------------------------------------------------------
Db--0--7--5--7--0--7--5--7--0--7--5--7--9----5----4----5---
Ab--0--7--5--7--0--7--5--7--0--7--5--7--9----5----4----5---
Db--0--7--5--7--0--7--5--7--0--7--5--7--9----5----4----5-—-
 
Guitar 2: (Strumming pattern not indicated)
Db---------------------------------------------------------
Db---------------------------------------------------------
Ab-----7--5--7-----7--5--7-----7--5--7--9----5----4----5---
Db--7-----------7-----------7------------------------------
Ab-----7--5--7-----7--5--7-----7--5--7--9----5----4----5---
Db--7-----------7-----------7----------------------------—
 
Guitar 1:
Db---------------------------------------------------------
Db---------------------------------------------------------
Ab---------------------------------------------------------
Db--9----5--7--9----5--------------------------------------
Ab--9----5--7--9----5--------------------------------------
Db--9----5--7--9----5------------------------------------—-
 
Guitar 2:
Db---------------------------------------------------------
Db---------------------------------------------------------
Ab--9----5--7--9--12--5--7---------------------------------
Db---------------------------------------------------------
Ab--9----5--7--9--12--5--7---------------------------------
Db-------------------------------------------------------—-
Without you
 
Outro:
Db---------------------------------------------------------
Db—-7h9-7h9-7---4h5-4h5-4---2h4-2h4-2---4h5-4h5-4----------
Ab--9---9---9---5---5---5---4---4---4---5---5---5----------
Db-------------------------------------------------5----/9-
Ab-------------------------------------------------5----/9-
Db-------------------------------------------------5----/9-
 
Db---------------------------------------------------------
Db---------------------------------------------------------
Ab---------------------------------------------------------
Db-----------------0-2-------------------------------------
Ab--------------2--0-2-------------------------------------
Db—-2h4—-2h4--0----0-2------------------------------------—
                  PM
 
Play that a few times, then:
Db---------------------------------------------------------
Db—-7h9-7h9-7---4h5-4h5-4---2h4-2h4-2---4h5-4h5-4----------
Ab--9---9---9---5---5---5---4---4---4---5---5---5----------
Db-------------------------------------------------5----/9-
Ab-------------------------------------------------5----/9-
Db-------------------------------------------------5----/9-
 
Db---------------------------------------------------------
Db---------------------------------------------------------
Ab----------------------------10-9-------------------------
Db-----------------0-2--3---5------------------------------
Ab--------------2--0-2--3---5-10-9-------------------------
Db—-2h4—-2h4--0----0-2--3---5-0--0------------------------—
                  PM
Comments