Silverchair - Without You Chords & Tabs

 

Without You Chords & Tabs

Silverchair Chords & Tabs

Version: 1 Type: Tab 0 ratings
1 star 2 stars 3 stars 4 stars 5 stars
comments

Without You Tab

   
Silverchair
Without You
Diorama Track 3

This song is played in Open C# tuning not D.
Tune your guitar to the following :

C# (high e)
C# (B)
G# (G)
C# (D)
G# (A)
C# (e)


Intro/Verse 1 (guitar 1)                                          

 |-12--12121212--121212----12--12121212--121212
 |-0---0-0-0-0---0-0-0-----11--11111111--111111
 |-12--12121212--121212----0---0-0-0-0---0-0-0-
 |-0---0-0-0-0---0-0-0-----0---0-0-0-0---0-0-0-
 |-0---0-0-0-0---0-0-0-----0---0-0-0-0---0-0-0-
 |-0---0-0-0-0---0-0-0-----0---0-0-0-0---0-0-0-


Intro (guitar 2) occasionally in verses.                                     

 |-------------------------------------
 |-------------------------------------
 |-------------------------------------
 |-0---------0--------0--------0-------
 |-0-/5-555--0-/5-555-0-/4-444-0-/4-444
 |-0---------0--------0--------0-------


Intro/verse (guitar3) heard in background.

 |-/12~--12~----/11~--/11--
 |-------------------------
 |-------------------------
 |-------------------------
 |-------------------------
 |-------------------------


Bridge (doubled with acoustic gtr) played with delay and tremolo.

 |--------------------------------------0--
 |-----7--------4--------0--------0-----0--
 |-------7--------5--------0--------0---0--
 |---7--------7--------4----------------5--
 |-0--------0--------2----------5-------5--
 |----------------------------5---------5--


Pre-Verse (guitar1)                        

 |-0--000--0-000--0--0-0-0----0--
 |-0--000--0-000--0--0-0-0----0--
 |-0--000--0-000--0--0-0-0----0--
 |-7--777--9-999--12-121212---14-
 |-5--555--7-777--10-101010---12-
 |-------------------------------

Pre-verse (guitar2)

 |---------
 |---------
 |---------
 |---------
 |-5-/17~--
 |---------


Chorus (play 3 times)                  

 |-0-000--0-000--0-000--0-000
 |-0-000--0-000--0-000--0-000
 |-7-777--7-777--5-555--7-777
 |-7-777--x-xxx--x-xxx--x-xxx
 |-5-555--7-777--5-555--7-777
 |--------7-777--5-555--7-777

then...
                                                   
 |-0-0000-000---0-0000-000---0-0000-000---0-0000-000
 |-0-0000-000---0-0000-000---0-0000-000---0-0000-000
 |-9-9999-999---5-5555-555---9-9999-999---5-5555-555
 |-x-xxxx-xxx---x-xxxx-xxx---x-xxxx-xxx---x-xxxx-xxx
 |-9-9999-999---5-5555-555---9-9999-999---5-5555-555
 |-9-9999-999---5-5555-555---9-9999-999---5-5555-555



Intro part played twice

 |-12--12121212--121212----12--12121212--121212
 |-0---0-0-0-0---0-0-0-----11--11111111--111111
 |-12--12121212--121212----0---0-0-0-0---0-0-0-
 |-0---0-0-0-0---0-0-0-----0---0-0-0-0---0-0-0-
 |-0---0-0-0-0---0-0-0-----0---0-0-0-0---0-0-0-
 |-0---0-0-0-0---0-0-0-----0---0-0-0-0---0-0-0-                                        

Played with vocals singing Telephone....

 |----------------------------------------
 |-12-12121212-121212---11-11111111-111111
 |----------------------------------------
 |----------------------------------------
 |----------------------------------------
 |----------------------------------------

back into verse 2
                             
 |-12--12121212--121212----12--12121212--121212
 |-0---0-0-0-0---0-0-0-----11--11111111--111111
 |-12--12121212--121212----0---0-0-0-0---0-0-0-
 |-0---0-0-0-0---0-0-0-----0---0-0-0-0---0-0-0-
 |-0---0-0-0-0---0-0-0-----0---0-0-0-0---0-0-0-
 |-0---0-0-0-0---0-0-0-----0---0-0-0-0---0-0-0-

then play :

bridge
pre-chorus

Chorus (play 3 times)                  

 |-0-000--0-000--0-000--0-000
 |-0-000--0-000--0-000--0-000
 |-7-777--7-777--5-555--7-777
 |-7-777--x-xxx--x-xxx--x-xxx
 |-5-555--7-777--5-555--7-777
 |--------7-777--5-555--7-777
[ Tab from: http://www.guitartabs.cc/tabs/s/silverchair/without_you_tab.html ]
then...
                                                   
 |-0-0000-000---0-0000-000--
 |-0-0000-000---0-0000-000--
 |-9-9999-999---5-5555-555--
 |-x-xxxx-xxx---x-xxxx-xxx--
 |-9-9999-999---5-5555-555--
 |-9-9999-999---5-5555-555--

 |-0-0000-000---0-0000-000--
 |-0-0000-000---0-0000-000--
 |-4-4444-444---5-5555-555--
 |-x-xxxx-xxx---x-xxxx-xxx--
 |-4-4444-444---5-5555-555--
 |-4-4444-444---5-5555-555--


Verse 3 (feels like the wind blows...)                             

 |-0-000---0-000---0-000---0-000
 |-0-000---0-000---0-000---0-000
 |-9-999---7-777---5-555---5-555
 |-x-xxx---x-xxx---x-xxx---0-000
 |-9-999---7-777---5-555---0-000
 |-9-999---7-777---5-555---0-000

end with                      

 |-000-0000-0000-0000--
 |-000-0000-0000-0000--
 |-555-5555-5555-5555--
 |-xxx-xxxx-xxxx-xxxx--
 |-555-5555-5555-5555--
 |-555-5555-5555-5555--


Chorus (play 3 times)                  

 |-0-000--0-000--0-000--0-000
 |-0-000--0-000--0-000--0-000
 |-7-777--7-777--5-555--7-777
 |-7-777--x-xxx--x-xxx--x-xxx
 |-5-555--7-777--5-555--7-777
 |--------7-777--5-555--7-777

then...

 |-0-0000-000---0-0000-000--
 |-0-0000-000---0-0000-000--
 |-9-9999-999---5-5555-555--
 |-x-xxxx-xxx---x-xxxx-xxx--
 |-9-9999-999---5-5555-555--
 |-9-9999-999---5-5555-555--

 |-0-0000-000---0-0000-000--
 |-0-0000-000---0-0000-000--
 |-4-4444-444---5-5555-555--
 |-x-xxxx-xxx---x-xxxx-xxx--
 |-4-4444-444---5-5555-555--
 |-4-4444-444---5-5555-555--


 |-0-000-000---0-000-0--0---0-000-0/--0---0-0-0----0-000-0--
 |-0-000-000---0-000-0--0---0-000-0/--0---0-0-0----0-000-0--
 |-9-999-999---5-555-5--7---9-999-9/--12--121212---5-555-5--
 |-x-xxx-xxx---x-xxx-x--x---x-xxx-x/--x---x-x-x----x-xxx-x--
 |-9-999-999---5-555-5--5---9-999-9/--12--121212---5-555-5p0
 |-9-999-999---5-555-5--5---9-999-9/--12--121212---5-555-5p0


Outro (guitar1) doubled with acoustic play 3times


 |-5-7-5-7-5---4-5-4-5-4---2-4-2-4-2---4-5-4-5-4--
 |-0-0-0-0-0---0-0-0-0-0---0-0-0-0-0---0-0-0-0-0--
 |-0-0-0-0-0---0-0-0-0-0---0-0-0-0-0---0-0-0-0-0--
 |-0-0-0-0-0---0-0-0-0-0---0-0-0-0-0---0-0-0-0-0--
 |------------------------------------------------
 |------------------------------------------------

                     (2nd part)
 |-0-000--0---0-000--x--------00-------0------------
 |-0-000--0---0-000--x--------00-------0------------
 |-0-000--0---0-000--x--------00-------0------------
 |-5-555--10--9-999--x----2h4-00--2h4--0--4-44--2b--
 |-5-555--10--9-999--x----2h4-00--2h4--0--2-22--2b--
 |-5-555--10--9-999--x----2h4-00--2h4--0--------2b--


then for the last time play this once


 |-5-7-5-7-5---4-5-4-5-4---2-4-2-4-2---4-5-4-5-4--
 |-0-0-0-0-0---0-0-0-0-0---0-0-0-0-0---0-0-0-0-0--
 |-0-0-0-0-0---0-0-0-0-0---0-0-0-0-0---0-0-0-0-0--
 |-0-0-0-0-0---0-0-0-0-0---0-0-0-0-0---0-0-0-0-0--
 |------------------------------------------------
 |------------------------------------------------

                     
 |-0-000--0---0-000--x--------00-------0-------------------00--
 |-0-000--0---0-000--x--------00-------0-------------------54--
 |-0-000--0---0-000--x--------00-------0-------------------00--
 |-5-555--10--9-999--x----2h4-00--2h4--0--4-44--2--333--5--00--
 |-5-555--10--9-999--x----2h4-00--2h4--0--2-22--2--333--5--55--
 |-5-555--10--9-999--x----2h4-00--2h4--0--------2--333--5--00--


Outro (guitar2 lead1) played here and there in the 
2nd part of the outro riff. (above)

 |------------------------------
 |------------------------------
 |------------------------------
 |------------------------------
 |-/5~----/4~------/5~-------/4~
 |------------------------------


Outro (Guitar3)
This is also played in the 2nd part of the outro riff                                       

 |-2h4--00---2h4---0------------------
 |-2----00---2-----0---/9---99---/2---
 |-0----00---0-----0------------------
 |------------------------------------
 |------------------------------------
 |------------------------------------

Thanx for viewing..
any comments or questions are welcome :
cocky_kingadoraaregods@hotmail.com
Comments