Silverchair - Undecided Chords & Tabs

 

Undecided Chords & Tabs

Silverchair Chords & Tabs

Version: 3 Type: Tab 0 ratings
1 star 2 stars 3 stars 4 stars 5 stars
comments

Undecided Tab

Silverchair: Undecided
By: Matt

Tuning: Drop D

H: Hammer-On    /: Slide
P: Pull-Off     X: Dead Strings

INTRO:
1|-----------------------------------|
2|-----------------------------------|
3|-----------------------------------|
4|---------------------X-X-X-X-X-X-X-|
5|---------------------X-X-X-X-X-X-X-|
6|-2-2/3-2-2P0-2-2/3-2-X-X-X-X-X-X-X-|

VERSE 1:
1|-------------------|
2|-------------------|
3|-------------------|
4|-------------------|
5|-------------------|
6|-2-2/3-2-2P0-2-2/3-|
Play this part 4 more times

1|-----------------------------------------|
2|-----------------------------------------|
3|-----------------------------------------|
4|-----------------------------------------|
5|-----------------------------------------|
6|-2-2/3-X-X-X-X-X-X-X-2P0-2-X-X-X-X-X-X-X-|
Play this part 3 more times.

PRE-CHORUS:
1|-------------------|
2|-------------------|
3|-------------------|
4|-------------------|
5|-5-5-5-5-5-5-7-7-8-|
6|-5-5-5-5-5-5-7-7-8-|

VERSE 2:
1|---------------|
2|---------------|
3|---------------|
4|---------------|
5|---------------|
6|-2-2/3-2-2P0-2-|

1|---------------------------------------------|
2|---------------------------------------------|
3|---------------------------------------------|
4|---------------------------------------------|
5|---------------------------------------------|
6|-2-2/3-2-X-X-X-X-X-X-X-2-2P0-2-X-X-X-X-X-X-X-|
Play this part 2 more times.

PRE-CHORUS:
1|-------------------|
2|-------------------|
3|-------------------|
4|-------------------|
5|-5-5-5-5-5-5-7-7-8-|
6|-5-5-5-5-5-5-7-7-8-|

CHORUS:
1|-------------------|-------------------|
2|-------------------|-------------------|
3|-------------------|-------------------|
4|-------------------|-------------------|
5|-2-2-2-5-5-5-5-5-5-|-3-3-3-6-6-6-6-6-6-|
6|-2-2-2-5-5-5-5-5-5-|-3-3-3-6-6-6-6-6-6-|

1|-------------------|-------------------|
2|-------------------|-------------------|
3|-------------------|-------------------|
4|-------------------|-------------------|
5|-2-2-2-5-5-5-5-5-5-|-0-0-0-7-7-7-7-7-7-|
6|-2-2-2-5-5-5-5-5-5-|-0-0-0-7-7-7-7-7-7-|
Play this part 1 more time.
[ Tab from: http://www.guitartabs.cc/tabs/s/silverchair/undecided_tab_ver_3.html ]
VERSE 3:
1|-----------------------|
2|-----------------------|
3|-----------------------|
4|---------X-X-X-X-X-X-X-|
5|---------X-X-X-X-X-X-X-|
6|-2-2/3-2-X-X-X-X-X-X-X-|
Play this part 1 more time.

1|-------------------|
2|-------------------|
3|-------------------|
4|-------------------|
5|-------------------|
6|-2-2/3-2-2P0-2-2/3-|

PRE-CHOURUS:
1|-------------------|
2|-------------------|
3|-------------------|
4|-------------------|
5|-5-5-5-5-5-5-7-7-8-|
6|-5-5-5-5-5-5-7-7-8-|

CHORUS:
1|-------------------|-------------------|
2|-------------------|-------------------|
3|-------------------|-------------------|
4|-------------------|-------------------|
5|-2-2-2-5-5-5-5-5-5-|-3-3-3-6-6-6-6-6-6-|
6|-2-2-2-5-5-5-5-5-5-|-3-3-3-6-6-6-6-6-6-|

1|-------------------|-------------------|
2|-------------------|-------------------|
3|-------------------|-------------------|
4|-------------------|-------------------|
5|-2-2-2-5-5-5-5-5-5-|-0-0-0-7-7-7-7-7-7-|
6|-2-2-2-5-5-5-5-5-5-|-0-0-0-7-7-7-7-7-7-|
Play this part 1 more time.

BRIDGE:
1|-----------------------------|
2|-----------------------------|
3|-----------------------------|
4|-----------------------------|
5|-4-4-4-4-4-4-4-4-9-9-9-9-0-2-|
6|-4-4-4-4-4-4-4-4-9-9-9-9-0-2-|
Play this part 3 more times.

1|---------------------------|
2|---------------------------|
3|---------------------------|
4|-X-X-X-X-------------------|
5|-X-X-X-X-------------------|
6|-X-X-X-X-2-2/3-2-2P0-2-2/3-|
Go Silent.

CHORUS:
1|-------------------|-------------------|
2|-------------------|-------------------|
3|-------------------|-------------------|
4|-------------------|-------------------|
5|-2-2-2-5-5-5-5-5-5-|-3-3-3-6-6-6-6-6-6-|
6|-2-2-2-5-5-5-5-5-5-|-3-3-3-6-6-6-6-6-6-|

1|-------------------|-------------------|
2|-------------------|-------------------|
3|-------------------|-------------------|
4|-------------------|-------------------|
5|-2-2-2-5-5-5-5-5-5-|-0-0-0-7-7-7-7-7-7-|
6|-2-2-2-5-5-5-5-5-5-|-0-0-0-7-7-7-7-7-7-|
Play this part 3 more times.

OUTRO:
1|-----------------|
2|-----------------|
3|-----------------|
4|-----------------|
5|-2-0-2-0-2-3-2-0-|
6|-2-0-2-0-2-3-2-0-|
Play this part 2 more times.

LAST NOTE:
1|---|
2|---|
3|---|
4|---|
5|-2-|
6|-2-|

Thats it all..... you can find out the strumming patterns when you listen to the song.
Comments