Silverchair - Trash Chords & Tabs

 

Trash Chords & Tabs

Silverchair Chords & Tabs

Version: 2 Type: Tab 0 ratings
1 star 2 stars 3 stars 4 stars 5 stars
comments

Trash Tab

   
Artist: Silverchair
Song: Trash
Album: Best Of. Vol 1.
Tabbed By: Simon Robson.


Dropped D tuning one half step down (from low to high:Db-Ab-Db-Gb-Bb-Eb), written chords are relative to a 
Dropped-D


[0:00]
(sound of food packets ripping and spoken words:)
I'll play something extraordinary

(sound of sneaker squeaking, then sound of cupboard door opening and
 keyboard arranged for guitar:)
eb|--18-16-14-13-14-13----14-13-11----11----------------------------0-|
Bb|--------------------12-------------------13-12-12-12-12-12-12-12-0-|
Gb|--------------------------------13----13-------------------------0-|
Db|-----------------------------------------------------------------0-|
Ab|-----------------------------------------------------------------0-|
Db|-----------------------------------------------------------------0-|

[0:18] (use big distortion + palm mutting)
|-------------------------|------------------------|
|-------------------------|------------------------|
|-------------------------|------------------------|
|-2p1p0-2--0-2--0-2--2-0--|-2p1p0-2--0-2--0-2--2-6-|
|-------2--0-2--0-2--2-0--|-------2--0-2--0-2--2-6-|
|-------2--0-2--0-2--2-0--|-------2--0-2--0-2--2-6-|

|-------------------------|---------------------|
|-------------------------|---------------------|
|-------------------------|---------------------|
|-2p1p0-2--0-2--0-2--2-0--|-2p1p0-2--0-2--2-6-6-|   REST
|-------2--0-2--0-2--2-0--|-------2--0-2--2-6-6-|
|-------2--0-2--0-2--2-0--|-------2--0-2--2-6-6-|
Gain, gain

[0:31]
|-------------------------|-------------------------|
|-------------------------|-------------------------|
|-------------------------|-------------------------|
|-2p1p0-2--0-2--0-2--2-0--|-2p1p0-2--0-2--0-2-2-2-2-|
|-------2--0-2--0-2--2-0--|-------2--0-2--0-2-2-2-2-|
|-------2--0-2--0-2--2-0--|-------2--0-2--0-2-2-2-2-|
                                            *******   *=PALM MUTE

|-------------------------|---------------------|
|-------------------------|---------------------|
|-------------------------|---------------------|
|-2p1p0-2--0-2--0-2--2-0--|-2p1p0-2--0-2--2-6-6-|   REST
|-------2--0-2--0-2--2-0--|-------2--0-2--2-6-6-|
|-------2--0-2--0-2--2-0--|-------2--0-2--2-6-6-|
Gain

[0:47]
  D5  G5    F5  G#5       D5  E5  F5    G5
|-----------------------|---------------------|
|-----------------------|---------------------|
|-7-7-12-12-10-10-13-13-|-7-7-9-9-10-10-12-12-|
|-7-7-12-12-10-10-13-13-|-7-7-9-9-10-10-12-12-|
|-5-5-10-10--8--8-11-11-|-5-5-7-7-8--8--10-10-|
|-----------------------|---------------------|
One, two, three, four

[0:52]
  D5  G5  F5  G#5   D5  E5  F5  G5    D5  G5  F5  G#5   D5  E5  F5  G5
|-----------------|-----------------|-----------------|-----------------|
|-----------------|-----------------|-----------------|-----------------|
|-----------------|-----------------|-----------------|-----------------|
|-0-0-5-5-3-3-6-6-|-0-0-2-2-3-3-5-5-|-0-0-5-5-3-3-6-6-|-0-0-2-2-3-3-5-5-|
|-0-0-5-5-3-3-6-6-|-0-0-2-2-3-3-5-5-|-0-0-5-5-3-3-6-6-|-0-0-2-2-3-3-5-5-|
|-0-0-5-5-3-3-6-6-|-0-0-2-2-3-3-5-5-|-0-0-5-5-3-3-6-6-|-0-0-2-2-3-3-5-5-|
[ Tab from: http://www.guitartabs.cc/tabs/s/silverchair/trash_tab_ver_2.html ]
[1:04] First verse
  D5  G5  F5  G#5   D5  E5  F5  G5    D5  G5  F5  G#5   D5  E5  F5  G5
|-----------------|-----------------|-----------------|-----------------|
|-----------------|-----------------|-----------------|-----------------|
|-----------------|-----------------|-----------------|-----------------|
|-0-0-5-5-3-3-6-6-|-0-0-2-2-3-3-5-5-|-0-0-5-5-3-3-6-6-|-0-0-2-2-3-3-5-5-|
|-0-0-5-5-3-3-6-6-|-0-0-2-2-3-3-5-5-|-0-0-5-5-3-3-6-6-|-0-0-2-2-3-3-5-5-|
|-0-0-5-5-3-3-6-6-|-0-0-2-2-3-3-5-5-|-0-0-5-5-3-3-6-6-|-0-0-2-2-3-3-5-5-|
Welcome! Nothing short of anarchy
It's so hard to find out who you wanna be
Welcome! Nothing short of anarchy
It's so hard to find out who you wanna be - oh!

[1:16] Main pattern (Daniel improvises around this):
|-4-4-3-3----------|
|----------3-3-----|
|--------------1-1-|
|------------------|
|------------------|
|------------------|

[1:33]
1st guitar:
  D5
|-------------------------|-------------------------|
|-------------------------|-------------------------|
|-------------------------|-------------------------|
|-0-0--0-0--0-0--0-0--0-0-|-0-0--0-0--0-0--0-0--0-0-|
|-0-0--0-0--0-0--0-0--0-0-|-0-0--0-0--0-0--0-0--0-0-|
|-0-0--0-0--0-0--0-0--0-0-|-0-0--0-0--0-0--0-0--0-0-|
2nd guitar:
|-------------------------|-------------------------|
|-------------------------|-------------------------|
|-------------------------|-------------------------|
|-------------------------|-3-3--3-3--3-3--3-3--3-3-|
|-------------------------|-------------------------|
|-------------------------|-------------------------|
                            ???????????????????????   ?=natural harmonics
Go!

[1:40] Second verse
|-------------------------|-------------------------|
|-------------------------|-------------------------|
|-------------------------|-------------------------|
|-2p1p0-2--0-2--0-2--2-0--|-2p1p0-2--0-2--0-2-2-2-2-|
|-------2--0-2--0-2--2-0--|-------2--0-2--0-2-2-2-2-|
|-------2--0-2--0-2--2-0--|-------2--0-2--0-2-2-2-2-|
                                            *******   *=PALM MUTE
I couldn't find what you needed - ooh to be a double
A big pill but you know that you need a poison

|-------------------------|---------------------|
|-------------------------|---------------------|
|-------------------------|---------------------|
|-2p1p0-2--0-2--0-2--2-0--|-2p1p0-2--0-2--2-6-6-|   REST
|-------2--0-2--0-2--2-0--|-------2--0-2--2-6-6-|
|-------2--0-2--0-2--2-0--|-------2--0-2--2-6-6-|
Open, you need it but I returned the point of acceptance
How brave, your parades never do much

[1:52]
||-------------------------------------------|| x3
||-------------------------------------------||
||-o---------------------------------------o-||
||-o--0-0--0/2-2--2/3-3--3/5-5--0-0-5-5-3--o-||
||----0-0--0/2-2--2/3-3--3/5-5--0-0-5-5-3----||
||----0-0--0/2-2--2/3-3--3/5-5--0-0-5-5-3----||
Violence!
Hopeless fight!
Call it straight!

|----------------------------------------------------|
|----------------------------------------------------|
|----------------------------------------------------|
|-0-0--0/2-2--2/3-3--3/5-5--0-0-5-5-3-3--0-0-5-5-3-3-|
|-0-0--0/2-2--2/3-3--3/5-5--0-0-5-5-3-3--0-0-5-5-3-3-|
|-0-0--0/2-2--2/3-3--3/5-5--0-0-5-5-3-3--0-0-5-5-3-3-|
Big black steel cap dealt rejection

[2:12]
  D5  G5  F5  G#5   D5  E5  F5  G5    D5  G5  F5  G#5   D5  E5  F5  G5
|-----------------|-----------------|-----------------|-----------------|
|-----------------|-----------------|-----------------|-----------------|
|-----------------|-----------------|-----------------|-----------------|
|-0-0-5-5-3-3-6-6-|-0-0-2-2-3-3-5-5-|-0-0-5-5-3-3-6-6-|-0-0-2-2-3-3-5-5-|
|-0-0-5-5-3-3-6-6-|-0-0-2-2-3-3-5-5-|-0-0-5-5-3-3-6-6-|-0-0-2-2-3-3-5-5-|
|-0-0-5-5-3-3-6-6-|-0-0-2-2-3-3-5-5-|-0-0-5-5-3-3-6-6-|-0-0-2-2-3-3-5-5-|
Yeah, yeah
Hey, hey, hey, hey
Yay
Ugggh!

|---|-4-4-3-3------------2--s10-|
|---|----------3-3-------3------|
|---|--------------1-1----------|
|-0-|---------------------------|
|-0-|---------------------------|
|-0-|---------------------------|
Comments