Silverchair - Too Much Of Not Enough Chords & Tabs

 

Too Much Of Not Enough Chords & Tabs

Silverchair Chords & Tabs

Version: 2 Type: Tab 0 ratings
1 star 2 stars 3 stars 4 stars 5 stars
comments

Too Much Of Not Enough Tab

   
#----------------------------------PLEASE NOTE---------------------------------#
#This file is the author's own work and represents their interpretation of the #
#song. You may only use this file for private study, scholarship, or research. #
#------------------------------------------------------------------------------#

Song: Too Much Of Not Enough
Band: Silverchair
Album: Diorama
tabbed by arlen b, 04/11/03
website: http://www.geocities.com/kingoftheeskimos

standard tuning

chords used:
  C    G    G#   Cm   Eb   Bb G#sus2  F5/B  F   G#2  G#/D
e-0----3----4----3----6----1-------------------------------------------
B-1----3----4----4----8----3-------------------------------------------
G-0----0----5----5----8----3-----------4----2----5----7----------------
D-2----0----6----5----8----3----8------3----3----6----6----------------
A-3----2----6----3----6----1----6------3----3----6----6----------------
E------3----4-------------------4------1----1----4----4----------------

intro:
  C Dsus4add9 G
e-0-0--0-0-0----3-3--3--3-3--------------------------------------------
B-1/3--3-3-3----3-3--3--3-3--------------------------------------------
G-0-0--0-0-0-0--0-0--0--0-0--------------------------------------------
D-2/4--4-4-4-0--0-0--0--0-0--------------------------------------------
A-3/5--5-5-5-2--2-2--2--2-2--------------------------------------------
E------------3--3-3--3--3-3--------------------------------------------

verse 1:
  


on 3rd "along":    
                G
e----------------------------------------------------------------------
B----------------------------------------------------------------------
G---------------4--4-4--4----------------------------------------------
D-4-4h5p4p0-7-4-5--5-5--5----------------------------------------------
A---------------5--5-5--5----------------------------------------------
E---------------3--3-3--3----------------------------------------------


pre-chorus:
 


chorus:
(a close look at something so close is too much of not enough)

riff on Fm:
e----------------------------------------------------------------------
B----------------------------------------------------------------------
G-----1-------1----1---------------------------------------------------
D-------3-------3----3-------------------------------------------------
A----------------------------------------------------------------------
E-1-1------11----------------------------------------------------------


verse 2:

[ Tab from: http://www.guitartabs.cc/tabs/s/silverchair/too_much_of_not_enough_tab_ver_2.html ]
on second "fit":
e----------------------------------------------------------------------
B-13-12-10-8-/11-10\8--------------------------------------------------
G----------------------------------------------------------------------
D-10--9--7-5-/8--7-\5--------------------------------------------------
A----------------------------------------------------------------------
E----------------------------------------------------------------------

on 3rd "along":    
                G
e----------------------------------------------------------------------
B----------------------------------------------------------------------
G---------------4--4-4--4----------------------------------------------
D-4-4h5p4p0-7-4-5--5-5--5----------------------------------------------
A---------------5--5-5--5----------------------------------------------
E---------------3--3-3--3----------------------------------------------


pre-chorus as before, with this fill coming into the chorus:

E-5-4-3-2--------

then chorus as before, until:

   Fm                         G#2  G#sus2  G#/D
...when all we need is just a taste


bridge (notes in parenthesis are emphasised by a piano):

e-----0--------3-------(0)-------3-------------------------------------
B(1-0)1---(1-0)3---(1-0)1---(1-3-0)---(0)------------------------------
G-0-0-0----0-0-0----0-0-0----0-0-0--(2)--------------------------------
D-2-2(2)---2-2(0)---2-2-2----2-2-0-------------------------------------
A-0-0-3----0-0-2----0-0-3----0-0-2-------------------------------------
E--------------3-----------------3-------------------------------------


with this guitar lead over top:
e----------------------------------------------------------------------
B----------------------------------------------------------------------
G-12-10-12-13--15-12-10-8----------------------------------------------
D----------------------------------------------------------------------
A----------------------------------------------------------------------
E----------------------------------------------------------------------

outro:


use this picking pattern:
  Fm7           Cm
e----------------------------------------------------------------------
B-----4-------4-------4-------4----------------------------------------
G----------------------------------------------------------------------
D-------------------5---5---5---5--------------------------------------
A---3---3---3---3-3-------3--------------------------------------------
E-1-------1------------------------------------------------------------
Comments