Silverchair - Tomorrow Chords & Tabs

 

Tomorrow Chords & Tabs

Silverchair Chords & Tabs

Version: 7 Type: Tab 0 ratings
1 star 2 stars 3 stars 4 stars 5 stars
comments

Tomorrow Tab

   
#----------------------------------PLEASE NOTE---------------------------------#
#This file is the author's own work and represents their interpretation of the #
#song. You may only use this file for private study, scholarship, or research. #
#------------------------------------------------------------------------------##

                                    TOMORROW
                           As recorded by Silverchair
                         (From the 1995 Album FROGSTOMP)

Words and Music by Daniel Johns and Ben Gillies
r

          A5                    C
      x 0 2 x x x         x x 10 9 8 8

Gtr I (E A D G B E) - 'Clean'
Gtr II (E A D G B E) - 'Clean'
Gtr III (E A D G B E) - 'Clean'
Gtr IV (E A D G B E) - 'Distortion'
Gtr V (E A D G B E) - 'Distortion'
Gtr VI (E A D G B E) - 'Clean'

 Intro
  Moderately Slow Rock Q=72
  A                                     D               C     G/B   G
 4/4
  Gtr I
  S S S S +S  S S S S S S S +S  S S S   S S S S S S S S S S S S S S  S  S
|-------0-(0)-------------0-(0)-------|-------3p2-------------------------||
|-------------2-----2-----------2-----|-----------3-----------------------||
|-----------------2-2---------------0-|---2-----------2-----0-----0-------||
|---2-----------2---2-2-----------2---|-0---0-------0-----2-----0-------0-||
|-0---0-------------0---0-------------|-----------------3-----2------2----||
|-------------------------------------|-----------------------------(3)---||


 Verse
  A                     G       D    N.C.
  Gtrs I, II
                                         ~
  Q  E. S E E S S S S   Q  E. S E. S S S E
|---------------------|----3--0------------|
|---------------2---0-|-3--3--3-3--0-------|
|-2--2--2-------2---0-|-0--0--0-2--0-------|
|-2--2--2---2-------0-|-0--0--0-0--0-2-----|
|-0--0--0-0-0-0---0h2-|-2--2---------3p0-2-|
|---------------------|-3--3-------------3-|


  A                       G      D      N.C.
                                            ~
  Q  E. S S S E S S S S   Q  E S S E. S S S E
|-----------------------|-3------2------------|
|-------2-2-2-----2---0-|-3--3---3-3--0-------|
|-2--2--2-2-2-2-2-2-0-0-|-0--0-0---2--0-------|
|-2--2--2-----2-------0-|-0--0-----0--0-2-----|
|-0--0--0-----0-------0-|-2--2-----0----3p0-2-|
|---------------------0-|-3--3--------------3-|


  A                         G        D    N.C.
                                              ~
  Q  E. S S S E +S  S S S   Q  E S S E. S S S E
|-------------------------|----3-----2----------|
|-----------------------0-|-3--3---3-3--0-------|
|-2--2--2-----2-(2)-2p0-0-|-0--0-0-0-2--0-------|
|-2--2--2---2-2-(2)-2-0---|-0--0-0---0--0-2-----|
|-0--0----0---0-(0)-------|-2--2----------3p0-2-|
|-------------------------|-3--3--------------3-|


  A                       G       D    N.C.
                                           ~
  Q  E. S S S E S S S S   Q  E. S E. S S S E
|-----------------------|-3--3---------------|
|-----------------------|-3--3--3-3----------|
|-2--2--2---2-2-2-2p0---|-0--0--0-2--2-------|
|-2--2--2---2-2---2-0---|-0--0--0-0--0-------|
|-0--0--0-0---0---------|-x--x----0--0-3p0---|
|---------------------0-|-3--3-------------3-|


  A                         G       D    N.C.
  Gtrs I, II
                                             ~
  Q  E. S S S E +S  S S S   Q  E. S E. S S S E
|-------------------------|-3--3--0-2----------|
|-------------------2p0-3-|-3--3--3-3--0-------|
|-2--2--2---2-2-(2)-2-0-0-|-0--0--0-2--0-0-----|
|-2--2--2---2-2-(2)-2-0-0-|-0--0--0-0--0-2-----|
|-0--0----0---0-(0)-0-----|-2--2----0----3p0-2-|
|-------------------------|-3--3-------------3-|
|
| Gtr III
| W                         W
|-0-----------------------|--------------------|
|-2-----------------------|--------------------|
|-2-----------------------|--------------------|
|-2-----------------------|--------------------|
|-0-----------------------|--------------------|
|-------------------------|--------------------|


  A                           G       D
  Gtrs I, II
  Q  E. S +S  S E +S  S S S   Q  E. S Q    Q
|---------------------------|-3--3----2----------------||
|---------------------------|-3--3--3-3----------------||
|-2--2--2-(2)-2-2-(2)-2-2p0-|-0--0--0-2----------------||
|-2--2--2-(2)-2-2-(2)---2-0-|-0--0----0----------------||
|-0--0--0-(0)---0-(0)-------|-2--2---------------------||
|---------------------------|-3--3---------------------||
|
| Gtr III
| W                           W
|-0-------------------------|--------------------------||
|-2-------------------------|--------------------------||
|-2-------------------------|--------------------------||
|-2-------------------------|--------------------------||
|-0-------------------------|--------------------------||
|---------------------------|--------------------------||
|
| Gtrs IV, V
| W                           H       E. S S S S   +S
|---------------------------|--------------------------||
|---------------------------|---------3----------------||
|---------------------------|---------2--0-------------||
|---------------------------|---------0--0-------------||
|---------------------------|---------0--0-3p0-2---(2)-||
|---------------------------|------------------3b4-(3)-||


   Pre-Chorus
                        1.,2.,3.                            4.
    A5               B5/F#         C5/G
    Gtrs IV, V
                                                              >
         PM|
    Q  E S S e E S S E   +E  E S S E +S  S a S S S S S S  4x  W
||---------------------|----------------------------------||--------||
||o--------------------|---------------------------------o||--------||
||--2--2-----2-2-x-x-4-|-(4)-4-x-x-5-(5)-5-----------5p0--||-(4)----||
||--2--2-----2-2-x-x-4-|-(4)-4-x-x-5-(5)-5-------5h7------||-(4)----||
||o-0--0-0-0-0-0-x-x-2-|-(2)-2-x-x-3-(3)-3-3s5h7---------o||-(2)----||
||-------------------2-|-(2)-2-x-x-3-(3)-3----------------||-(2)----||


 Interlude
  A        D                            C          D
  Gtrs I, VI
  E. S S S  E  S  S  S  S  S  S  S  S    S E S S S  E  S  S  S  S  S  S  E
|-5--5-x-x-10-10-12p10----------------|--8-8-8-x-x-10-10-12p10--------------|
|-5--5-x-x-10-10-------10-12p10-------|--8---8-x-x-10-10-------10-12p10-----|
|-6----x-x-11-------------------11s=9-|--9-----x-x-11-------------------11\-|
|-7--------12-------------------12s10-|-10---------12-------------------12\-|
|-------------------------------------|-------------------------------------|
|-------------------------------------|-------------------------------------|


  A5
  Gtr IV
  E  E   E    E  E     E     E     E
  |  |   |    |  |     |     |     |
  /  /   /    /  /     /     /     /

  Gtrs I, VI
  E.   S S S  E  S  S  S  S  S  S  S  S
|-5----5-x-x-10-10-12p10-------10-------|
|-5----5-x-x-10-10-------10-12----------|
|-6------x-x-11-------------------11s=9-|
|-7----------12-------------------12s10-|
|---------------------------------------|
|---------------------------------------|
|
| Gtr V
|                                  <
| H              Q           E     E
|---------------------------------------|
|---------------------------------------|
|---------------------------------------|
|---------------------------------------|
|----------------------------------0----|
|---------------------------------------|


  C             A5
   S  S S S S S  S S  E     E     S  S  S  S
   |  | | | |    | |  |     |     |  |  |  |
   /  / / / /    / /  /     /     /  /  /  /

   S  E   S S S  E    S  S  S  S  S  S  E
|--8--8---8-x-x-10---10-12p10----------------||
|--8------8-x-x-10---10-------10-12p10-------||
|--9--------x-x-11---------------------11\---||
|-10------------12---------------------12\---||
|--------------------------------------------||
|--------------------------------------------||
|
| +H                  S  S  S  S  S  S  S  S
|--------------------------------------------||
|--------------------------------------------||
|---------------------2--2--2--2--2--2--0--2-||
|---------------------2--2--2--2--2--2--0--2-||
|-(0)-----------------0--0--0--0--0--0--0--0-||
|--------------------------------------------||


   Chorus
    A5             Dsus2/A       Csus2/G  Dsus2/A
    Gtr IV
    E. S S S E +S  S E S S S S   E. S S S E +S  S E S S E
||-----------------------------|---------------------------|
||o----------------5-5-5-5-5-5-|-3--3---x-5-(5)-5-5-5-5-5\-|
||--2--2-x-x-7-(7)-7-7-7-7-7-7-|-5--5-x-x-7-(7)-7-7-7-7-7\-|
||--2--2-x-x-7-(7)-7-7-7-7-7-7-|-5--5-x-x-7-(7)-7-7-7-7-7\-|
||o-0--0-x-x-5-(5)-5-5-5-5-5-5-|-3--3-x---5-(5)-5-5-5-5-5\-|
||-----------5-(5)-5-5-5-5-5-5-|-3--3-----5-(5)-5-5-5-5-5\-|


                              1.                           2.
  A5             Dsus2/A       Csus2/G        Dsus2/A       C5/G
  E. S S S E +S  S E S S S S   E. S S S E +S  S E S S E     H.      +E  S S
|----------------------------|----------0-(0)------------||-----------------||
|----------------5-5-5-5-5-5-|-3--3---x-3-(3)-5-5-5-5-5-o||-----------------||
|-2--2-x-x-7-(7)-7-7-7-7-7-7-|-5--5-x-x-2-(2)-7-7-7-7-7--||-5-------(5)---0-||
|-2--2-x-x-7-(7)-7-7-7-7-7-7-|-5--5-x-x-0-(0)-7-7-7-7-7--||-5-------(5)-0-0-||
|-0--0-x-x-5-(5)-5-5-5-5-5-5-|-3--3-x---0-(0)-5-5-5-5-5-o||-3-------(3)-0---||
|----------5-(5)-5-5-5-5-5-5-|-3--3-----------5-5-5-5-5--||-3-------(3)-----||


 Verse
  A                         G        D    N.C.
  Gtrs I, II, VI
                                              ~
  Q  E. S S S E +S  S S S   Q  E S S E. S S S E
|-------------------------|----3-----2----------|
|-----------------------0-|-3--3---3-3--0-------|
|-2--2--2-----2-(2)-2p0-0-|-0--0-0-0-2--0-------|
|-2--2--2---2-2-(2)-2-0---|-0--0-0---0--0-2-----|
|-0--0----0---0-(0)-------|-2--2----------3p0-2-|
|-------------------------|-3--3--------------3-|


  A                       G       D    N.C.
                                           ~
  Q  E. S S S E S S S S   Q  E. S E. S S S E
|-----------------------|-3--3---------------|
|-----------------------|-3--3--3-3----------|
|-2--2--2---2-2-2-2p0---|-0--0--0-2--2-------|
|-2--2--2---2-2---2-0---|-0--0--0-0--0-------|
|-0--0--0-0---0---------|-x--x----0--0-3p0---|
|---------------------0-|-3--3-------------3-|


  A                         G       D    N.C.
                                             ~
  Q  E. S S S E +S  S S S   Q  E. S E. S S S E
|-------------------------|-3--3--0-2----------|
|-------------------2p0-3-|-3--3--3-3--0-------|
|-2--2--2---2-2-(2)-2-0-0-|-0--0--0-2--0-0-----|
|-2--2--2---2-2-(2)-2-0-0-|-0--0--0-0--0-2-----|
|-0--0----0---0-(0)-0-----|-2--2----0----3p0-2-|
|-------------------------|-3--3-------------3-|


  A                           G       D
  Gtrs I, II, VI
  Q  E. S +S  S E +S  S S S   Q  E. S Q    Q
|---------------------------|-3--3----2----------------||
|---------------------------|-3--3--3-3----------------||
|-2--2--2-(2)-2-2-(2)-2-2p0-|-0--0--0-2----------------||
|-2--2--2-(2)-2-2-(2)---2-0-|-0--0----0----------------||
|-0--0--0-(0)---0-(0)-------|-2--2---------------------||
|---------------------------|-3--3---------------------||
|
| Gtrs IV, V
| W                           H       E. S S S S   +S
|---------------------------|--------------------------||
|---------------------------|---------3----------------||
|---------------------------|---------2--0-------------||
|---------------------------|---------0--0-------------||
|---------------------------|---------0--0-3p0-2---(2)-||
|---------------------------|------------------3b4-(3)-||


   Pre-Chorus
    A5               B5/F#         C5/G
    Gtrs IV, V
         PM|
    Q  E S S e E S S E   +E  E S S E +S  S a S S S S S S
||---------------------|----------------------------------||
||o--------------------|---------------------------------o||
||--2--2-----2-2-x-x-4-|-(4)-4-x-x-5-(5)-5-----------5p0--||
||--2--2-----2-2-x-x-4-|-(4)-4-x-x-5-(5)-5-------5h7------||
||o-0--0-0-0-0-0-x-x-2-|-(2)-2-x-x-3-(3)-3-3s5h7---------o||
||-------------------2-|-(2)-2-x-x-3-(3)-3----------------||


   Chorus
    A5             Dsus2/A       Csus2/G  Dsus2/A
    Gtr IV
    E. S S S E +S  S E S S S S   E. S S S E +S  S E S S E
||-----------------------------|---------------------------|
||o----------------5-5-5-5-5-5-|-3--3---x-5-(5)-5-5-5-5-5\-|
||--2--2-x-x-7-(7)-7-7-7-7-7-7-|-5--5-x-x-7-(7)-7-7-7-7-7\-|
||--2--2-x-x-7-(7)-7-7-7-7-7-7-|-5--5-x-x-7-(7)-7-7-7-7-7\-|
||o-0--0-x-x-5-(5)-5-5-5-5-5-5-|-3--3-x---5-(5)-5-5-5-5-5\-|
||-----------5-(5)-5-5-5-5-5-5-|-3--3-----5-(5)-5-5-5-5-5\-|

[ Tab from: http://www.guitartabs.cc/tabs/s/silverchair/tomorrow_tab_ver_7.html ]
  1.
  A5             Dsus2/A       Csus2/G   Dsus2/A
  E. S S S E +S  S E S S S S   S S S S E S S S S E S S S S
|----------------------------|------------------------------||
|----------------5-5-5-5-5-5-|-3-3-3-3---5-5-5-5---5-5-----o||
|-2--2-x-x-7-(7)-7-7-7-7-7-7-|-5-5-5-5---7-7-7-7---7-7---5--||
|-2--2-x-x-7-(7)-7-7-7-7-7-7-|-5-5-5-5---7-7-7-7---7-7---5--||
|-0--0-x-x-5-(5)-5-5-5-5-5-5-|-3-3-3-3---5-5-5-5---5-5-x---o||
|----------5-(5)-5-5-5-5-5-5-|-3-3-3-3---5-5-5-5---5-5-x----||


  2.
  A5             Dsus2/A       Csus2/G     Dsus2/A
  E. S S S E +S  S E S S S S   S S S S S S S S S S S S S S S S
|----------------------------|-3-3-3-3-3-----------------------||
|----------------5-5-5-5-5-5-|-3-3-3-3-3---5-5-5-5-5-5-5-5---x-||
|-2--2-x-x-7-(7)-7-7-7-7-7-7-|-5-5-5-5-5---7-7-7-7-7-7-7-7-x-x-||
|-2--2-x-x-7-(7)-7-7-7-7-7-7-|-5-5-5-5-5---7-7-7-7-7-7-7-7-x-x-||
|-0--0-x-x-5-(5)-5-5-5-5-5-5-|-3-3-3-3-3---5-5-5-5-5-5-5-5-x---||
|----------5-(5)-5-5-5-5-5-5-|-3-3-3-3-3---5-5-5-5-5-5-5-5-----||


 Guitar Solo
  A5                     Dsus2/A
  Gtr IV
  E.        S  S S E +S  S E S S S S
|------------------------------------|
|------------------------5-5-5-5-5-5-|
|-2---------2--x-x-7-(7)-7-7-7-7-7-7-|
|-2---------2--x-x-7-(7)-7-7-7-7-7-7-|
|-0---------0--x-x-5-(5)-5-5-5-5-5-5-|
|------------------5-(5)-5-5-5-5-5-5-|
|
| Gtr V
|                PM~~~~~~
| E  S     +S  S S E +Q      S S S S
|------------------------------------|
|----5b5.5-(5)---------------------5-|
|----5b6---(5)-----------------5-7-5-|
|--------------7-5-7-(7)-----7-------|
|------------------------------------|
|------------------------------------|


  Csus2/G                    Dsus2/A
  E.                S   S  S E    +S        S  E           S       S E
|------------------------------------------------------------------------|
|-3-----------------3------x-5----(5)-------5--5-----------5-------5-5\--|
|-5-----------------5---x--x-7----(7)-------7--7-----------7-------7-7\--|
|-5-----------------5---x--x-7----(7)-------7--7-----------7-------7-7\--|
|-3-----------------3---x----5----(5)-------5--5-----------5-------5-5\--|
|-3-----------------3--------5----(5)-------5--5-----------5-------5-5\--|
|
| S   +S  S a      +S  +S  S E    +S  a    +S  S     S     S     a S S S
|------------------------------------------------------------------------|
|---------8-7b7.5==(7)r(7)-----------------------------------------------|
|-7b9-(7)---7b8====(7)r(7)p5-7b9==(7)-7pb9r(7)-7pb9==7pb9==7pb9==7r7-5h7-|
|------------------------------------------------------------------------|
|------------------------------------------------------------------------|
|------------------------------------------------------------------------|


  A5                      Dsus2/A
  E.        S S S E   +S  S E   S S S S
|---------------------------------------|
|-------------------------5-5---5-5-5-5-|
|-2---------2-x-x-7---(7)-7-7---7-7-7-7-|
|-2---------2-x-x-7---(7)-7-7---7-7-7-7-|
|-0---------0-x-x-5---(5)-5-5---5-5-5-5-|
|-----------------5---(5)-5-5---5-5-5-5-|
|
|         ~                     ~
| S   +S  E   S S E   +S  S S S E   S S
|---------------------------------------|
|---------------------------------------|
|-7b9-(7)-7---5h7-5b6-(5)---5-----------|
|-------------------------7-5-7-7---5h7-|
|---------------------------------------|
|---------------------------------------|


    Csus2/G            Dsus2/A
    E.     S S S E +S  S E    S   S   E
|----------------0-(0)--------------------|
|---3------3---x-3-(3)-5-5----5---5---5---|
|---5------5-x-x-2-(2)-7-7----7---7---7---|
|---5------5-x-x-0-(0)-7-7----7---7---7---|
|---3------3-x---0-(0)-5-5----5---5---5---|
|---3------3-----------5-5----5---5---5---|
|
|                ~~~~~~
|                             |--3--|
| a S  S S S S S E +E    S  S S S   S S S
|-----------------------------------------|
|-----------------------------------------|
|------------5----------------------------|
|------------5-7-7-(7)--------------------|
|-7s5--5-5S7------------------------------|
|------------------------1s14s1-1---1-1-1-|


        A5                                         Dsus2/A
          E. S            S    S           E   +S  S E             S    S     S S
|---------------------------------------------------------------------------------|
|--------------------------------------------------5-5-------------5----5-----5-5-|
|---------2--2------------x----x-----------7---(7)-7-7-------------7----7-----7-7-|
|---------2--2------------x----x-----------7---(7)-7-7-------------7----7-----7-7-|
|---------0--0------------x----x-----------5---(5)-5-5-------------5----5-----5-5-|
|------------------------------------------5---(5)-5-5-------------5----5-----5-5-|
|
|  a     +Q      a       +S   +S   a      +E   +E    S  S  a      +S   +T  T  E
|-10b12-(10)---[10]b12==(10)r(10)-10b12==(10)r(10)--------------------------------|
|---------------------------------10b12==(10)r(10)---8-10-10b11==(10)r(10)p8-10---|
|---------------------------------------------------------------------------------|
|---------------------------------------------------------------------------------|
|---------------------------------------------------------------------------------|
|---------------------------------------------------------------------------------|


         Csus2/G                   Dsus2/A
           E.        S S  S          E   +S  S           E   S           S    E
|-----------------------------------------------------------------------------------|
|----------3---------3----x----------5---(5)-5-----------5---5-----------5----5\----|
|----------5---------5-x--x----------7---(7)-7-----------7---7-----------7----7\----|
|----------5---------5-x--x----------7---(7)-7-----------7---7-----------7----7\----|
|----------3---------3-x-------------5---(5)-5-----------5---5-----------5----5\----|
|----------3---------3---------------5---(5)-5-----------5---5-----------5----5\----|
|
|                                         ~~~~
|  a      +S   +S  S S S  S  a      +E    E     a       +E   S  a       +S   +S  S
|-----------------------------------------------------------10----------------------|
|-10b11==(10)r(10)-8---8-10-10b12==(10)-(10)---10pb12==(10)----10pb12==(10)r(10)-8--|
|--------------------9--------------------------------------------------------------|
|-----------------------------------------------------------------------------------|
|-----------------------------------------------------------------------------------|
|-----------------------------------------------------------------------------------|


  A5                      Dsus2/A
   E. S S      S  E   +S  S E S S S S
|-------------------------------------|
|-------------------------5-5-5-5-5-5-|
|--2--2-x------x--7---(7)-7-7-7-7-7-7-|
|--2--2-x------x--7---(7)-7-7-7-7-7-7-|
|--0--0-x------x--5---(5)-5-5-5-5-5-5-|
|-----------------5---(5)-5-5-5-5-5-5-|
|
|  ~~~                        ~
|  E. S S     +S  E   +S  S E E   S S
|-----0-------------------------------|
|-10--0-5b5.5-(5)---------------------|
|-------5b6---(5)-5b6-(5)---------5h7-|
|-------------------------7-7-7-------|
|-------------------------------------|
|-------------------------------------|


  Csus2/G                                      Dsus2/A
  E.             S   S  S       E      +S       S  E         S   S  E
|-------------------------------0------(0)-----------------------------------|
|-3--------------3------x-------3------(3)------5--5---------5---5--5--------|
|-5--------------5---x--x-------2------(2)------7--7---------7---7--7--------|
|-5--------------5---x--x-------0------(0)------7--7---------7---7--7--------|
|-3--------------3---x----------0------(0)------5--5---------5---5--5--------|
|-3--------------3------------------------------5--5---------5---5--5--------|
|
| S   +S  S a    S  +S  S a     S  +S   S  a    E    S a    +S  +S  S   +S
|----------------------------------------------------------------------------|
|---------8------8--(8)-8-------8-------8-------8----8-----------------------|
|-7b9-(7)---7b9-(7)-(7)---7b9==(7)r(7)-----7b9-(7)-----7b9==(7)r(7)-5b6-(5)--|
|----------------------------------------------------------------------------|
|----------------------------------------------------------------------------|
|----------------------------------------------------------------------------|


 Chorus
  A5             Dsus2/A
  E. S S S E +S  S E S S S S
|----------------------------|
|----------------5-5-5-5-5-5-|
|-2--2-x-x-7-(7)-7-7-7-7-7-7-|
|-2--2-x-x-7-(7)-7-7-7-7-7-7-|
|-0--0-x-x-5-(5)-5-5-5-5-5-5-|
|----------5-(5)-5-5-5-5-5-5-|
|
| ~~
| W
|----------------------------|
|----------------------------|
|----------------------------|
|-7--------------------------|
|----------------------------|
|----------------------------|


  Csus2/G   Dsus2/A            A5             Dsus2/A
   E. S S S E +S  S E S S E    E. S S S E +S  S E S S S S
|----------------------------|-----------------------------|
|--3--3---x-5-(5)-5-5-5-5-5\-|----------------5-5-5-5-5-5--|
|--5--5-x-x-7-(7)-7-7-7-7-7\-|-2--2-x-x-7-(7)-7-7-7-7-7-7--|
|--5--5-x-x-7-(7)-7-7-7-7-7\-|-2--2-x-x-7-(7)-7-7-7-7-7-7--|
|--3--3-x---5-(5)-5-5-5-5-5\-|-0--0-x-x-5-(5)-5-5-5-5-5-5--|
|--3--3-----5-(5)-5-5-5-5-5\-|----------5-(5)-5-5-5-5-5-5--|
|
| +Q.       E  H               W
|----------------------------|-----------------------------|
|----------------------------|-----------------------------|
|----------------------------|-----------------------------|
|-(7)------------------------|-----------------------------|
|----------------------------|-----------------------------|
|----------------------------|-----------------------------|


  Csus2/G   Dsus2/A
  Gtrs IV, V
  S S S S E S S S S E S S S S
|-----------------------------|
|-3-3-3-3---5-5-5-5---5-5-----|
|-5-5-5-5---7-7-7-7---7-7---5-|
|-5-5-5-5---7-7-7-7---7-7---5-|
|-3-3-3-3---5-5-5-5---5-5-x---|
|-3-3-3-3---5-5-5-5---5-5-x---|


  A5             Dsus2/A       Csus2/G  Dsus2/A
  E. S S S E +S  S E S S S S   E. S S S E +S  S E S S E
|----------------------------|----------------------------|
|----------------5-5-5-5-5-5-|-3--3---x-5-(5)-5-5-5-5-5\--|
|-2--2-x-x-7-(7)-7-7-7-7-7-7-|-5--5-x-x-7-(7)-7-7-7-7-7\--|
|-2--2-x-x-7-(7)-7-7-7-7-7-7-|-5--5-x-x-7-(7)-7-7-7-7-7\--|
|-0--0-x-x-5-(5)-5-5-5-5-5-5-|-3--3-x---5-(5)-5-5-5-5-5\--|
|----------5-(5)-5-5-5-5-5-5-|-3--3-----5-(5)-5-5-5-5-5\--|


  A5             Dsus2/A
  E. S S S E +S  S E S S S S
|----------------------------|
|----------------5-5-5-5-5-5-|
|-2--2-x-x-7-(7)-7-7-7-7-7-7-|
|-2--2-x-x-7-(7)-7-7-7-7-7-7-|
|-0--0-x-x-5-(5)-5-5-5-5-5-5-|
|----------5-(5)-5-5-5-5-5-5-|


  Csus2/G   Dsus2/A             A5             Dsus2/A
  S S S S E S S S S E S S S S   E. S S S E +S  S E S S S S
|-----------------------------|----------------------------|
|-3-3-3-3---5-5-5-5---5-5-----|----------------5-5-5-5-5-5-|
|-5-5-5-5---7-7-7-7---7-7---5-|-2--2-x-x-7-(7)-7-7-7-7-7-7-|
|-5-5-5-5---7-7-7-7---7-7---5-|-2--2-x-x-7-(7)-7-7-7-7-7-7-|
|-3-3-3-3---5-5-5-5---5-5-x---|-0--0-x-x-5-(5)-5-5-5-5-5-5-|
|-3-3-3-3---5-5-5-5---5-5-x---|----------5-(5)-5-5-5-5-5-5-|


  Csus2/G  Dsus2/A            A5             Dsus2/A
  E. S S S E +S  S E S S E    E. S S S E +S  S E S S S S
|---------------------------|----------------------------|
|-3--3---x-5-(5)-5-5-5-5-5\-|----------------5-5-5-5-5-5-|
|-5--5-x-x-7-(7)-7-7-7-7-7\-|-2--2-x-x-7-(7)-7-7-7-7-7-7-|
|-5--5-x-x-7-(7)-7-7-7-7-7\-|-2--2-x-x-7-(7)-7-7-7-7-7-7-|
|-3--3-x---5-(5)-5-5-5-5-5\-|-0--0-x-x-5-(5)-5-5-5-5-5-5-|
|-3--3-----5-(5)-5-5-5-5-5\-|----------5-(5)-5-5-5-5-5-5-|


                H.=H
  Csus2/G     Dsus2/A          A5
                                       >
          |-3-|
  S S S S E E E +Q   S S S S   H.      Q
|-3-3-3-3--------------------|------------*|
|-3-3-3-3---x-5-(5)----------|------------*|
|-5-5-5-5-x-x-7-(7)--7-7-7-0-|-2----------*|
|-5-5-5-5-x-x-7-(7)--0-0-0-0-|-2-------2--*|
|-3-3-3-3-x---5-(5)--------0-|-0----------*|
|-3-3-3-3-----5-(5)----------|------------*|


Duration Legend
---------------
W - whole; H - half; Q - quarter; E - 8th; S - 16th; T - 32nd; X - 64th; a - acciaccatura
+ - note tied to previous; . - note dotted; .. - note double dotted
Uncapitalized letters represent notes that are staccato (1/2 duration)
Irregular groupings are notated above the duration line
Duration letters will always appear directly above the note/fret number it represents the
duration for.  Duration letters with no fret number below them represent rests.  Multi-
bar rests are notated in the form Wxn, where n is the number of bars to rest for.  Low
melody durations appear below the staff

Tablature Legend
----------------
 h   - hammer-on
 p   - pull-off
 b   - bend
 pb  - pre-bend
 r   - bend release (if no number after the r, then release immediately)
 /\  - slide into or out of (from/to "nowhere")
 s   - legato slide
 S   - shift slide
  - natural harmonic
[n]  - artificial harmonic
n(n) - tapped harmonic
 ~   - vibrato
 tr  - trill
 T   - tap
 TP  - trem. picking
 PM  - palm muting
\n/  - tremolo bar dip; n = amount to dip
 \n  - tremolo bar down
 n/  - tremolo bar up
/n\  - tremolo bar inverted dip
 =   - hold bend; also acts as connecting device for hammers/pulls
 <>  - volume swell (louder/softer)
 x   - on rhythm slash represents muted slash
 o   - on rhythm slash represents single note slash

Misc Legend
-----------
 |  - bar
||  - double bar
||o - repeat start
o|| - repeat end
*|  - double bar (ending)
 :  - bar (freetime)
 $  - Segno
 &  - Coda
Tempo markers -  = BPM(8/16=s8/s16), where s8 = swing 8ths, s16 = swing 16ths
Comments