Silverchair - Tomorrow Chords & Tabs

 

Tomorrow Chords & Tabs

Silverchair Chords & Tabs

Version: 3 Type: Tab 0 ratings
1 star 2 stars 3 stars 4 stars 5 stars
comments

Tomorrow Tab

   
song:tomorrow
artist:silverchair
tabed by Chuck wise
chuckchunder11@hotmail.com


INTRO
     A                                   D
e----------0------------------0----------------3p2--2---------
B------------0----0-------------0----0-------3---------3------
G--------------2------------------2--------2-------------2----
D----2------------------2----------------0--------------------
A--2---2--------------2---2-----------------------------------
E-------------------------------------------------------------
     C       G         A
e-----------------------------
B-------------------------2---
G-------0--------0--------2---
D-----2--------0----------2---
A---3--------2--------0-------
E-----------------------------


VERSE

A    G   D CGA


PRE-CHORUS
   A              B   C      D
e------------------------------------------------
B------------------------------------------------
G-----------------4~-4-4-5~---------------7^p0---
D--7-7--X-X--7-7--4~-4-4-5~----------5h7---------
A--7-7--X-X--7-7--2~-2-2-3~-----5h7--------------
E--5-5--X-X--5-5---------------------------------

[ Tab from: http://www.guitartabs.cc/tabs/s/silverchair/tomorrow_tab_ver_3.html ]
CHORUS
   A   D        C    D       A   D        C        D          D                                      
e----------------------------------------------------------------------
B----------------------------------------------------------------------
G------7-7-7-7--5-5--7-7-7-7-----7-7-7-7--5-5-5-5--7-7-7-7----7-7-7----
D--7-7-7-7-7-7--5-5--7-7-7-7-7-7-7-7-7-7--5-5-5-5--7-7-7-7----7-7-7----
A--7-7-5-5-5-5--3-3--5-5-5-5-7-7-5-5-5-5--3-3-3-3--5-5-5-5----5-5-5----
E--5-5-----------------------5-5---------------------------------------

INTERLUDE

e--5-5---10--12--10------------8-8---10--12--10----------
B--5-5---10---------12--10-----8-8---10---------12--10---
G--6-6---11---------------11---9-9---11---------------11-  X2
D--------------------------------------------------------
A--------------------------------------------------------
E--------------------------------------------------------

SOLO

e-----------------------------------------------------------------------------------
B--------------------8-5------------------------------------------------------------
G------5------5-7-5------7-5-8^---8^--8^--8^--8^\7-5-7-5----------------------------
D--5h7---5h7---------------------------------------------7-5-7-5-7----------5h7--7~-
A------------------------------------------------------------------5-5-5h7----------
E-----------------------------------------------------------------------------------

e--12^---12^------------------------------------------------------------------------------
B--------12^--12/10--12-10----12-10-12-10-12^~-----12^-12^-12^-12^-12-10------------------
G--------------------------12--------------------------------------------12-10------------
D-------------------------------------------------------------------------------12--10----
A--------------------------------------------------------------------------------------12-
E-----------------------------------------------------------------------------------------

e------------------------------------------
B------------------------------------------
G--12----12----12----12--------------------
D-----12----12----12------12---10----------
A----------------------------------12~-----
E------------------------------------------

EASY
ENJOY


yourmother goes hard
Comments