Silverchair - The Greatest View Chords & Tabs

 

The Greatest View Chords & Tabs

Silverchair Chords & Tabs

Version: 4 Type: Tab 0 ratings
1 star 2 stars 3 stars 4 stars 5 stars
comments

The Greatest View Tab

   
#----------------------------------PLEASE NOTE---------------------------------#
#This file is the author's own work and represents their interpretation of the #
#song. You may only use this file for private study, scholarship, or research. #
#------------------------------------------------------------------------------#



Tab
Song : The Greatest View
Artist : Silverchair
Version : Live (no Albumn Records)
Author Of The Tab: Adrian Rodriguez (The Chiliens Daniels)


Es lo mas exacto que me puedo acercar a la verdadera cancion aunque es decision de ustedes
si la encuentran parecida :)    ahi esta disfrutenla !!

                                                The Greatest View.
                                                ------------------
                               
[00:00] Intro (with distortion)

e||--------------------------------------------------------|| x2
B||--------------------------------------------------------||
G||--------------------------------------------------------||
D||--------------------------------------------------------||
A||------12-11-10--7-10-9-7------------3-------3--8-7-5-7--||
E||--0-0--------------------0-3-1--0-1---1-0-1-------------||

[00:12] Verso 1

      A    B7   A   Am    A    E
e||-------------0---0-----0---------|  X2
B||---0---------2---1-----2---------|
G||---6----0----2---2-----2----1----|
D||---7----8----2---2-----2----2----|
A||---7----6----0---------0----2----|
E||--------8-------------------0----|

[00:31] Final de Verso 1
     ......

     Bm     F    G 
e||---2-----1----0---||
B||---3-----1----0---||
G||---4-----3----4---||
D||---4-----2----5---||
A||---2-----2----5---||
E||---------1----3---||

[00:35] Pre - Coro

Asus         A            C         D
Now that you know why you feel like you do......

     Asus    A    C   D
e||----0----------0---2----||
B||----5-----0----1---3----||
G||----7-----6----0---2----||
D||----7-----7----2---0----||
A||----------7----3--------||
E||------------------------||

[00:52] Final De Pre - Coro

e||--------------------------||
B||--------------------------||
G||--14--13-13--11-11--9-9---||
D||--------------------------||
A||--12--11-11---9--9--7-7---||
E||--------------------------||

[ Tab from: http://www.guitartabs.cc/tabs/s/silverchair/the_greatest_view_tab_ver_4.html ]
[00:56] Coro
A            Amaj           Bm
I'm watching you watch over me 
                 D        Dm
And I've got the greatest view from here

      A    Amaj   Bm    D    Dm 
e||---------0-----------2----1------||
B||---0-----2-----0-----3----3------||
G||---6-----1-----4-----2----2------||
D||---7-----2-----4-----0----0------||
A||---7-----0-----2-----------------||
E||---------------------------------||

[1:19] Bridge
        D                    C                                      D                        C    
e||----------------------------------3p0--------------5p2p0----------------------9---7---5--------------0-------|| x1
B||-----3--0--2--2--0h2-0-0------1-------0h1----------------2-------3--0--2-----------------------1-------------||
G||-----2--2--2----------2--------0--------------2------------------2--2--2----9---7---5------------------7-----||
D||---2------------------------2-------------2/4---4--------------2----------------------------2------4-----4---||
A||-0------------------------3----------------------------------0----------------------------3------5-----------||
E||-------------------------------------------------------------------------------------------------------------||

[1:32] Verso 2


      A    B7   A   Am    A    E
e||-------------0---0-----0---------| x2
B||---0---------2---1-----2---------|
G||---6----0----2---2-----2----1----|
D||---7----8----2---2-----2----2----|
A||---7----6----0---------0----2----|
E||--------8-------------------0----|

[1:51] Final de Verso 2

      C    D
e||---0----2---------||
B||---1----3---------||
G||---0----2---------||
D||---2----0---------||
A||---3----0---------||
E||---0--------------||

[1:55] Coro


      A    Amaj   Bm    D    Dm 
e||---------0-----------2----1------||
B||---0-----2-----0-----3----3------||
G||---6-----1-----4-----2----2------||
D||---7-----2-----4-----0----0------||
A||---7-----0-----2-----------------||
E||---------------------------------||

[2:18] Stick
Daniels play this riff in the live version if you dont believe me downloading the Video and check ;)
Daniels Toca este riff en la version en vivo si tu no me crees baja el video y chekalo  ;)

e||------------------------------------------------||
B||------------------------------------------------||  
Comments