Silverchair - The Closing Chords & Tabs

 

The Closing Chords & Tabs

Silverchair Chords & Tabs

Version: 2 Type: Bass Tab 0 ratings
1 star 2 stars 3 stars 4 stars 5 stars
comments

The Closing Bass Tab

Artist: Silverchair
Title: The Closing
>From the Album: Freakshow


"dropped D tuning"
tune 'E' string down 1 step to "D"

Verse 1:
G-------------------------------------------
D-------------------------------------------
A-------------------------------------------
D-/-9-9-9-9---9-9-9-9---0---3-3-3--3/5-5-0--

Chorus:
G-------------------------------------------
D-------------------------------------------
A-5-5-5--1-1-1-1----------------------------
D----------------0--3-3-3--4-4-4-4--0-------
[ Tab from: http://www.guitartabs.cc/tabs/s/silverchair/the_closing_btab_ver_2.html ]
Verse 2:
G-----------------------------------------------------------------
D-----------------------------------------------------------------
A-0-0-0-0---0-0-0-0---0-0-0-0----2-3---3-3---3-3-3----------------
D--------------------------------------------------4-4-4----5-5-5-

Bridge:
G-----------------------------------------------------------------
D-----------------------------------------------------------------
A---3------2----3------2---1---------3------2---3------2----------
D-0----0-0----0----0-0---0--------0----0-0----0----0-0---0--3-----


Thats it!! This is my favorite Silverchiar song to play.  Its pretty easy, 
just listen to the song for the timing.

submitted by: Kristi Biyak 
	      wayne_biyak@bc.sympatico.ca

Comments