Silverchair - Stoned Chords & Tabs

 

Stoned Chords & Tabs

Silverchair Chords & Tabs

Version: 1 Type: Bass Tab 0 ratings
1 star 2 stars 3 stars 4 stars 5 stars
comments

Stoned Bass Tab

   
#----------------------------------PLEASE NOTE---------------------------------#
#This file is the author's own work and represents their interpretation of the-#
#song. You may only use this file for private study, scholarship, or research.-#
#------------------------------------------------------------------------------#

Silverchair - Stoned


Intro Riff
G------------------
D------------------
A----------------3-
E-3-3-3-5--6-6-6---

Verse Riff A
G---------------------------------
D---------------------------------
A-----------------3-3-3-3-3-3-3-3-
E-3-3-3-3-6-6-6-6-----------------

Verse Riff B
G-------------------
D-------------------
A-----------------3-
E-3-3-3-3-5-5-5-5---

Chorus Riff A
G---------------------------------
D-------5-------7-------8-------3-
A--------------------------------- (I doubt the octave up notes should be there but it sounds
E-3-3-3---5-5-5---6-6-6---1-1-1---  better, leave them out if you want and just play 4 of each
                                    note on the E)
[ Tab from: http://www.guitartabs.cc/tabs/s/silverchair/stoned_btab.html ]
Chorus Riff B
G---------------------------------
D---------------------------------
A-------------------------3-3-3-3-
E-3-3-3-3-5-5-5-5-6-6-6-6---------

Chorus Riff C
G-------------------
D-------------------
A-------------------
E-3-3-3-3-5-5-5-5-6-

Guitar Solo Riff
G---------------------------------
D---------------------------------
A---------------------------------
E-3-3-3-3-5-5-5-5-6-6-6-6-6-6-6-6-

End Riff
G---
D---
A---
E-3-
 
Song Structure:
Intro Riff    x1
Verse Riff A  x3
Verse Riff B  x1
Verse Riff A  x3
Verse Riff B  x1
Chorus Riff A x1
Chorus Riff B x1
Chorus Riff A x1
Chorus Riff C x1
Verse Riff A  x3
Verse Riff B  x1
Verse Riff A  x3
Verse Riff B  x1
Chorus Riff A x1
Chorus Riff B x1
Chorus Riff A x1
Chorus Riff C x1
Solo Riff     x4 (on forth repetition play only one of the 6's)
Chorus Riff A x1
Chorus Riff B x1
Chorus Riff A x1
Chorus Riff C x1
End Riff      x1

================================================================================
Comments