Silverchair - Staging A Traffic Jam Chords & Tabs

 

Staging A Traffic Jam Chords & Tabs

Silverchair Chords & Tabs

Version: 1 Type: Tab 0 ratings
1 star 2 stars 3 stars 4 stars 5 stars
comments

Staging A Traffic Jam Tab

   
#----------------------------------PLEASE NOTE---------------------------------#
#This file is the author's own work and represents their interpretation of the #
#song. You may only use this file for private study, scholarship, or research. #
#------------------------------------------------------------------------------#
Artist: Daniel Johns & Paul Mac (Silverchair)
Song: Staging A Traffic Jam
Album: I Can't Belive It's Not Rock
Tabbed By: Simon Robson



Standard tuning 
Intro/verse (electric piano arranged for guitar)

Played with variations.
e||-----------------------------------|| 
B||------3-----3---------6-----6------||
G||--2-3---2-3---3-2-5-6---5-6---6-5--||
D||-----------------------------------||
A||--------0---------------6----------||
E||--3---------------6----------------||


     G5    A5        Bb5   D#5
e||-----------------------------------|| 
B||-----------------------------------||
G||------------------------8-8-8-8-8--||
D||--5-5-5-7-7-7-7-7-8-8-8-8-8-8-8-8--||
A||--5-5-5-7-7-7-7-7-8-8-8-6-6-6-6-6--||
E||--3-3-3-5-5-5-5-5-6-6-6------------||

[ Tab from: http://www.guitartabs.cc/tabs/s/silverchair/staging_a_traffic_jam_tab.html ]
e||-1-1-x-x-x-x-x-1-1-x-x-x-x-x---0-0----------|| x2
B||-3-3-2-2-2-2-2-3-3-1-1-1-1-1---0-1----------||
G||-2-2-3-3-3-3-3-2-2-2-2-2-2-2---0-3-5-5s7-4--||
D||-3-3-3-3-3-3-3-3-3-2-2-2-2-2-2-2-2-x-xsx-x--||
A||-1-1-x-x-x-x-x-1-1-x-x-x-x-x-2---3-3-3s5-2--||
E||-----2-2-2-2-2-----1-1-1-1-1-0--------------||
Verse
e||-----------------------------------|| 
B||------3-----3---------6-----6------||
G||--2-3---2-3---3-2-5-6---5-6---6-5--||
D||-----------------------------------||
A||--------0---------------6----------||
E||--3---------------6----------------||

Bass part
||-----------------------------------||
||-----------------------------------||
||------------------------6-6-6-6-6--||
||--3-3-3-5-5-5-5-5-6-6-6------------||

Guitar 1    
e||-1-1-x-x-x-x-x-1-1-x-x-x-x-x---0-0----------|| 
B||-3-3-2-2-2-2-2-3-3-1-1-1-1-1---0-1----------||
G||-2-2-3-3-3-3-3-2-2-2-2-2-2-2---0-3-5-5s7-4--||
D||-3-3-3-3-3-3-3-3-3-2-2-2-2-2-2-2-2-x-xsx-x--||
A||-1-1-x-x-x-x-x-1-1-x-x-x-x-x-2---3-3-3s5-2--||
E||-----2-2-2-2-2-----1-1-1-1-1-0--------------||

Guitar 2
e||-------------------------------0------------|| 
B||-------------------------------0------------||
G||-3-3-----------3-3-------------0-5-5-5s7-4--||
D||-3-3-4-4-4-4-4-3-3-3-3-3-3-3-2-2-5-x-xs7-x--||
A||-1-1-4-4-4-4-4-1-1-3-3-3-3-3-2---3-3-3s5-2--||
E||-----2-2-2-2-2-----1-1-1-1-1-0--------------||

Outro
Guitar 1    
e||-1-1-x-x-x-x-x--|| 
B||-3-3-2-2-2-2-2--||
G||-2-2-3-3-3-3-3--||
D||-3-3-3-3-3-3-3--||
A||-1-1-x-x-x-x-x--||
E||-----2-2-2-2-2--||
Guitar 2
e||----------------|| 
B||----------------||
G||-3-3------------||
D||-3-3-4----------||
A||-1-1-4----------||
E||-----2----------||
Comments