Silverchair - Slave Chords & Tabs

 

Slave Chords & Tabs

Silverchair Chords & Tabs

Version: 1 Type: Tab 0 ratings
1 star 2 stars 3 stars 4 stars 5 stars
comments

Slave Tab

#----------------------------------PLEASE NOTE---------------------------------#
#This file is the author's own work and represents their interpretation of the #
#song. You may only use this file for private study, scholarship, or research. #
#------------------------------------------------------------------------------#
#


From no1woody@concentric.net Sun May  4 10:49:51 1997
Date: Sun, 16 Mar 1997 02:01:09 -0500
From: no1woody 
To: guitar@olga.net
Subject: Tab: "Slave" by Silverchair

* Please Note: This posting will most likely not be exactly tabbed as *
*  the song really is played. Most people know this, but some people  *
*                      seem to miss this fact.                        *


Slave: Silverchair
Transcribed by: Nick Olman (no1woody@cris.com)

Intro
------------|-------------|-----------------|-----------------|
-7--7-7-7---|--7--7-7-7---|-7--7-7-7-7------|-----------------|
-6--6-6-6---|--5--5-5-5---|-6--6-6-6-6------|-----------------|
-4--4-4-4---|--4--4-4-4---|-4--4-4-4-4---1--|-----------------|
-4--4-4-4---|--4--4-4-4---|-4--4-4-4-4-0-1--|-----------------|
-4--4-4-4---|--4--4-4-4---|-4--4-4-4-4-0-1--|----------4/18\1-|
                                                                              

                3x
------------------|------------------|
------------------|---------------7--|
------------------|---------------6--|
------------------|---------------4--|
-0-3h5p0-3h5p0-3--|-0-3h5p0-3h5p0-4--|
-0-------------3--|-0-------------4--|

                                                                              

-------------|-----------|-------------|-----------------|
-------------|-----------|-------------|-----------------|
-------------|-----------|-------------|-----------------|
-------------|-----------|-------------|-----------------|
-0-5-x-5-x-3-|-0-5-x-5-4-|-0-5-x-5-x-3-|-0-5-x-5-4-4-4-4-|
-0---------3-|-0-------4-|-0---------3-|-0-------4-4-4-4-|
   ph  ph        ph  ph      ph  ph        ph    pm----|                      


-------------|-------------|-------------|-------------|
-------------|-------------|-------------|-------------|
-------------|-------------|-------------|-------------|
-------------|-------------|-------------|-------------|
-0-5-x-5-x-3-|-0-5-x-5-x-4-|-0-5-x-5-x-3-|-0-5-x-5-x---|
-0---------3-|-0---------4-|-0---------3-|-0-----------|
   ph  ph        ph  ph        ph  ph        ph  ph                           

Verse                                       2x
-------------------|--------------|-----------|
-------------------|--------------|-----------|
-------------------|--------------|-----------|
-------------------|--------------|-----------|
-1--1-1-1--1-1-1-1-|1-1--1-1-1--1-|--4-4------|
-1--1-1-1--1-1-1-1-|1-1--1-1-1--1-|--4-4------|
                                                                              


-----------|-----------|-----------|-------------|
-----------|-----------|-----------|-------------|
-----------|-----------|-----------|-------------|
-----------|-----------|-----------|-------------|
-0--0--0-3-|-0--0--0-3-|-0--0--0-3-|-0--0--0-3-3-|
-0--0--0-3-|-0--0--0-3-|-0--0--0-3-|-0--0--0-3-3-|

                                                                              

-----------|-----------|-----------|-------------|
-----------|-----------|-----------|-------------|
-----------|-----------|-----------|-------------|
-----------|-----------|-----------|-------------|
-0--0--0-3-|-0--0--0-3-|-0--0--0-3-|-0--0--------|
-0--0--0-3-|-0--0--0-3-|-0--0--0-3-|-0--0--------|
                                                                              
[ Tab from: http://www.guitartabs.cc/tabs/s/silverchair/slave_tab.html ]
Chorus                                                           4x
------------------|----------------|-------------------------------|
------------------|----------------|-------------------------------|
------------------|----------------|-------------------------------|
------------------|----------------|-------------------------------|
--0--0-0-0-10-12--|-0--0-0-0-10-12-|-10-9-0-10-9-0-10-9-0-10-0-8---|
--0--0-0-0-10-12--|-0--0-0-0-10-12-|-10-9-0-10-9-0-10-9-0-10-0-8---|
                                                                              


------------|
------------|
------------|
------------|
-1--1-1-1-1-|
-1--1-1-1-1-|
                                                                              

Verse 2
-----------|-----------|-----------|-------------|
-----------|-----------|-----------|-------------|
-----------|-----------|-----------|-------------|
-----------|-----------|-----------|-------------|
-0--0--0-3-|-0--0--0-3-|-0--0--0-3-|-0--0--0-3-3-|
-0--0--0-3-|-0--0--0-3-|-0--0--0-3-|-0--0--0-3-3-|



-----------|-----------|-----------|-------------|
-----------|-----------|-----------|-------------|
-----------|-----------|-----------|-------------|
-----------|-----------|-----------|-------------|
-0--0--0-3-|-0--0--0-3-|-0--0--0-3-|-0--0--0--3--|
-0--0--0-3-|-0--0--0-3-|-0--0--0-3-|-0--0--0--3--|
                                           pm

                4x                    2x
------------------|----------|----------|------------|
------------------|-7--------|----------|------------|
------------------|-6--------|----------|------------|
------------------|-5--------|----------|------------|
------------------|-4--------|----------|-------x-4--|
------------------|----------|----------|-------x-4--|



Chorus                                                           4x
------------------|----------------|-------------------------------|
------------------|----------------|-------------------------------|
------------------|----------------|-------------------------------|
------------------|----------------|-------------------------------|
--0--0-0-0-10-12--|-0--0-0-0-10-12-|-10-9-0-10-9-0-10-9-0-10-0-8---|
--0--0-0-0-10-12--|-0--0-0-0-10-12-|-10-9-0-10-9-0-10-9-0-10-0-8---|


                                   2x
-------------------------------------|
-------------------------------------|
-------------------------------------|
-------------------------------------|
-10-9-0-10-9-0-10-9-0-10-9-0-10-0-8--|
-10-9-0-10-9-0-10-9-0-10-9-0-10-0-8--|


                             8x
-------------------------------|
-------------------------------|
-------------------------------|
-------------------------------|
-2-1-0-2-1-0-2-1-0-2-1-0-2-1-0-|
-2-1-0-2-1-0-2-1-0-2-1-0-2-1-0-|
                                                                              

                                   4x
-------------------------------------|
-------------------------------------|
-------------------------------------|
-------------------------------------|
-10-9-0-10-9-0-10-9-0-10-9-0-10-0-8--|
-10-9-0-10-9-0-10-9-0-10-9-0-10-0-8--|
                                                                              


-11-11-11-11-11-11-11-11-|-11-11-11-11-11-11-11-11-|
-10-10-10-10-10-10-10-10-|-10-10-10-10-10-10-10-10-|
-------------------------|-------------------------|
-------------------------|-------------------------|
-------------------------|-------------------------|
-------------------------|-------------------------|
                                                     


-8-8-8-8-8-8-8-8-|-7-7-7-7-7-7-7-7-|
-7-7-7-7-7-7-7-7-|-6-6-6-6-6-6-6-6-|
-----------------|-----------------|
-----------------|-----------------|
-----------------|-----------------|
-----------------|-----------------|



-9-9-9-9-9-9-9-9-|-9-9-9-9-9-9-9-9-|
-8-8-8-8-8-8-8-8-|-8-8-8-8-8-8-8-8-|
-----------------|-----------------|
-----------------|-----------------|
-----------------|-----------------|
-----------------|-----------------|



-9-9-9-9--(9)\---|
-8-8-8-8--(8)\---|
-----------------|
-----------------|
-----------------|
-----------------|                         


                
------------------|-----|
------------------|-----|
------------------|-----|
------------------|-----|
-0-3h5p0-3h5p0-3--|--0--|
-0-------------3--|--0--|
Comments