Silverchair - Shade Chords & Tabs

 

Silverchair Chords & Tabs

Version: 1 Type: Tab 0 ratings
1 star 2 stars 3 stars 4 stars 5 stars
comments

Shade Tab

Shade - silverchair

One of their greatest songs, i love this song.

Standard Tuning
[ Tab from: http://www.guitartabs.cc/tabs/s/silverchair/shade_tab.html ]
Intro 
e -5---3----3---0---0-----5----5---3--0--0----
b -6---3----1---1---3-----5h6--5---1--1--3----
g -7---5----0---2---4-----5h7--3---0--2--4----
d -7---5----2---3---5-----5h7--3---2--3--5----
a -5---3------------------5----5--------------
e --------------------------------------------
play twice
Verse
e -5---3---3----1----3-----------------
b -6---3---1----1----0-----------------
g -7---5---0----3----0-----------------
d -7---5---2----3----0-----------------
a -5---3--------1----x-----------------
e -------------------3-----------------
Pre Chorus
e ----------------
b ----------------
g ----------------
d ----------------
a --0--3--0--5----
e ----------------
Chorus
e -5---x---1---x----3---x---3---------
b -6---x---1---x----3---x---3---------
g -7---x---2---x----5---x---4---------
d -7---x---3---x----5---x---5---------
a -5---x---3---x----3---x---5---------
e -----x---1---x--------x---3---------
Guitar Solo
e ----------------------------------------------------------
b ----------------------------------------------------------
g --------10------------------------------------------------
d --10h12----12-12------10--------------12\-----10-10h12----
a -----------------10h12--------------12----8/12------------
e -------------------------10h12-10-13----------------------

e ----------------------------------------------------------
b ----------------------------------------------------------
g -------------10/9-9~~ ----9-9/7-7--7--7--7/9--9/10--9--10-
d -10--------10---------------------------------------------
a ---12p10--------------------------------------------------
e --------12------------------------------------------------

e ----------------------------------------------------------
b ---------------------------------10h11p10-----------------
g -10/12--10-----10-----------10h12--------12---------------
d ----------10h12---12-----12----------------10/9-9-9h10----
a --------------------10h12---------------------------------
e ----------------------------------------------------------

e ------------------------------------
b ------------------------------------
g -10h12-10h12------------------------
d ------------10-----10--10\----------
a --------------10h12-----------------
e ------------------------------------
Interlude
e --5---3-------------x--5--3--3------------
b --6---3-------------x--7--3--3------------
g --7---5-------------x--6--5--4------------
d ------5-----2-------x--6--5--5------------
a ------3---3---0--3-----5--3--5----3h5-----
e -----------------------------3-3h5--------
Then for the distorted part, turn on distortion and play chorus in 
power chords.
Enjoy!
Comments - JesusPnkr@aol.com
Comments