Silverchair - Roses Chords & Tabs

 

Roses Chords & Tabs

Silverchair Chords & Tabs

Version: 1 Type: Tab 0 ratings
1 star 2 stars 3 stars 4 stars 5 stars
comments

Roses Tab

Silverchair – „Roses“

Artist: Silverchair
Author: Daniel Johns (Silverchair)
Song:   Roses
Album:  Freak Show

Transcribed by: Benjamin Knorr
Country: Germany
e-Mail: Jackie_Chan87@web.de

Tuning: DADGBe


This are the most important parts of this cool song („Smelling dead roses...“). Have fun!!!


MAIN THING:

e|-------------------------------------
B|-------------------------------------
G|-------------------------------------
D|-9-9-9-9--3-3-3-3--6-6-6-6--0-0-0-0--
A|-9-9-9-9--3-3-3-3--6-6-6-6--0-0-0-0--
D|-9-9-9-9--3-3-3-3--6-6-6-6--0-0-0-0--
[ Tab from: http://www.guitartabs.cc/tabs/s/silverchair/roses_tab.html ]
  ----------------------------------------------------|
  ----------------------------------------------------|
  ----------------------------------------------------|
  --9-9-9-9--3-3-3-3--6-6-6-6--0-13-12-0--[-0-0-0-0-]-|
  --9-9-9-9--3-3-3-3--6-6-6-6--0-13-12-0--[-0-0-0-0-]-|
  --9-9-9-9--3-3-3-3--6-6-6-6--0-13-12-0--[-0-0-0-0-]-|


CHORUS:

e|--------------------------------------------------
B|--------------------------------------------------
G|--------------------------------------------------
D|-12--12-12-0--4--4-4-0--9--9-9-0--14-16-16-16-16--
A|-12--12-12-0--4--4-4-0--9--9-9-0--14-16-16-16-16--
D|-12--12-12-0--4--4-4-0--9--9-9-0--14-16-16-16-16--

  --------------------------------------------------------|
  --------------------------------------------------------|
  --------------------------------------------------------|
  --12--12-12-0--4--4-4-0--x-x-x-x-2-3--x-x-x-x-0--[-2x-]-|
  --12--12-12-0--4--4-4-0--x-x-x-x-2-3--x-x-x-x-0--[-2x-]-|
  --12--12-12-0--4--4-4-0--x-x-x-x-2-3--x-x-x-x-0--[-2x-]-|
Comments