Silverchair - Pure Massacre Chords & Tabs

 

Pure Massacre Chords & Tabs

Silverchair Chords & Tabs

Version: 7 Type: Tab 0 ratings
1 star 2 stars 3 stars 4 stars 5 stars
comments

Pure Massacre Tab

   
*****************************
*SILVERCHAIR - PURE MASSACRE*
*****************************

DISCO: FROGSTOMP (1995)

AFINACIÓN EN RE (D-A-D-G-B-e)

HECHO POR: JUAN DE CAMILLIS

Aca esta este gran tema de Silverchair que ademas es bastante facil de tocar, si le encontras el 
ritmo. Cualquier sugerencia, o correccion, por favor mandame un mail a: jadecam_akd@yahoo.com.ar.

INTRO:
(PARTE 1)
E|---------------------------------|
B|---------------------------------|
G|---0-2-2-2-1-1-0-0-0h2-2-2/5-5-5-|
D|-0---0-0-0-0-0-0-0-0-0-0-0/0-0-0-|
A|---------------------------------|
D|---------------------------------|
  
"People, dying for no reason at all..."

(PARTE 2)
E|-------------------------|
B|-------------------------|
G|-----------5-------------|
D|-0-3-0-3-0-5-0-3-0-3/5/7-|
A|-0-3-0-3-0-3-0-3-0-3/5/7-|
D|-0-3-0-3-0---0-3-0-3/5/7-| 
____________________________________________

VERSO 1:

(PARTE 1)
E|---------------------------------|
B|---------------------------------|
G|---0-2-2-2-1-1-0-0-0h2-2-2/5-5-5-|
D|-0---0-0-0-0-0-0-0-0-0-0-0/0-0-0-|
A|---------------------------------|
D|---------------------------------|
 
  "Families been torn apart..."
  "Doesn't have to be this way"
(PARTE 2)
E|-------------------------|
B|-------------------------|
G|-----------5-------------|
D|-0-3-0-3-0-5-0-3-0-3/5/7-|
A|-0-3-0-3-0-3-0-3-0-3/5/7-|
D|-0-3-0-3-0---0-3-0-3/5/7-| 

   "...some people just have no heart..."
   "...It's happening every day..."
____________________________________________

ESTRIBILLO:
(PARTE 1)
E|-----------------------------|
B|-----------------------------|
G|-----------------------------|
D|-5-5-x-x-3-3-x-x-5-5-x-x-8-8-|
A|-5-5-x-x-3-3-x-x-5-5-x-x-8-8-|
D|-5-5-x-x-3-3-x-x-5-5-x-x-8-8-|
  
  "...Pure massacre, pure massacre, ah ah..."
[ Tab from: http://www.guitartabs.cc/tabs/s/silverchair/pure_massacre_tab_ver_7.html ]
(PARTE 2)
E|---------------------------------|
B|---------------------------------|
G|---0-2-2-2-1-1-0-0-0h2-2-2/5-5-5-|
D|-0---0-0-0-0-0-0-0-0-0-0-0/0-0-0-|
A|---------------------------------|
D|---------------------------------|
____________________________________________

VERSO 1:

(PARTE 1)
E|---------------------------------|
B|---------------------------------|
G|---0-2-2-2-1-1-0-0-0h2-2-2/5-5-5-|
D|-0---0-0-0-0-0-0-0-0-0-0-0/0-0-0-|
A|---------------------------------|
D|---------------------------------|

   "...Machine guns pumping, hearts thumping..."
   "...Death is all around..."

(PARTE 2)
E|-------------------------|
B|-------------------------|
G|-----------5-------------|
D|-0-3-0-3-0-5-0-3-0-3/5/7-|
A|-0-3-0-3-0-3-0-3-0-3/5/7-|
D|-0-3-0-3-0---0-3-0-3/5/7-| 

   "...People crying for freedom..."
   "...no one hears a sound..."
____________________________________________

ESTRIBILLO:
(PARTE 1)
E|-----------------------------|
B|-----------------------------|
G|-----------------------------|
D|-5-5-x-x-3-3-x-x-5-5-x-x-8-8-|
A|-5-5-x-x-3-3-x-x-5-5-x-x-8-8-|
D|-5-5-x-x-3-3-x-x-5-5-x-x-8-8-|
  
  "...Pure massacre, pure massacre, ah ah..."

(PARTE 2)
E|---------------------------------|
B|---------------------------------|
G|---0-2-2-2-1-1-0-0-0h2-2-2/5-5-5-|
D|-0---0-0-0-0-0-0-0-0-0-0-0/0-0-0-|
A|---------------------------------|
D|---------------------------------|
____________________________________________


PUENTE:

E|------------------|
B|------------------|
G|-7-7--3-3--5-5----|
D|-7-7--3-3--5-5--5-|
A|-5-5--1-1--3-3--5-|
D|----------------5-|

"...There's people crying,
There's people dying.
But someone's taking
It all..."
____________________________________________

ESTRIBILLO:
____________________________________________


OUTRO:

E|------------------|
B|------------------|
G|-7-7--3-3--5-5----|
D|-7-7--3-3--5-5--5-|
A|-5-5--1-1--3-3--5-|
D|----------------5-|
Comments