Silverchair - Pure Massacre Chords & Tabs

 

Pure Massacre Chords & Tabs

Silverchair Chords & Tabs

Version: 3 Type: Tab 0 ratings
1 star 2 stars 3 stars 4 stars 5 stars
comments

Pure Massacre Tab

   
silverchair - pure massacre
kieran - foo_fighter42@hotmail.com
Song Pure Massacre
silverchair
from Frogstomp
tabbed by Kieran
(foo_fighter42@hotmail.com)

Tuning Dropped-D (DADGBE)


Intro
E|---------------------------------|
B|---------------------------------|
G|---0-2-2-2-1-1-0-0-0h2-2-2/5-5-5-|
D|-0---0-0-0-0-0-0-0-0-0-0-0/0-0-0-|
A|---------------------------------|
D|---------------------------------|
[ Tab from: http://www.guitartabs.cc/tabs/s/silverchair/pure_massacre_tab_ver_3.html ]
verse
E|-------------------------|
B|-------------------------|
G|-----------7-------------|
D|-0-3-0-3-0-7-0-3-0-3-5-7-|
A|-0-3-0-3-0-5-0-3-0-3-5-7-|
D|-0-3-0-3-0---0-3-0-3-5-7-|

 chorus
E|-----------------------------|
B|-----------------------------|
G|-----------------------------|
D|-5-5-x-x-3-3-x-x-5-5-x-x-8-8-|
A|-5-5-x-x-3-3-x-x-5-5-x-x-8-8-|
D|-5-5-x-x-3-3-x-x-5-5-x-x-8-8-|
"pure massacre..."

Bridge
E|------------------|
B|------------------|
G|-7-7--3-3--5-5----|
D|-7-7--3-3--5-5--5-|
A|-5-5--1-1--3-3--5-|
D|----------------5-|


Comments