Silverchair - Pop Song Chords & Tabs

 

Pop Song Chords & Tabs

Silverchair Chords & Tabs

Version: 1 Type: Tab 0 ratings
1 star 2 stars 3 stars 4 stars 5 stars
comments

Pop Song Tab

   
-!!!!!!!!!!!!!!!!!!!!!!!!!!!!!!!!!!!!!!!!!!!!!!!!!!!!!!!!!!!!!!!!!!!!!!!!!!!!!
                    TRANSCRIPTION BY MIKE STRAMAGLIO
                         (RYZA36A@prodigy.com)
         http://pages.prodigy.com/GenX/silver.htm  [The Faultline Page]
!!!!!!!!!!!!!!!!!!!!!!!!!!!!!!!!!!!!!!!!!!!!!!!!!!!!!!!!!!!!!!!!!!!!!!!!!!!!!
Band-silverchair
Song-Pop Song For Us Rejects
Album-Freak Show
Transcribed by Mike Stramaglio (RYZA36A@prodigy.com)
Thanks to Denis Bourdon for aid in this tablature

*TUNING*-STANDARD (except guitar 2 on one part, dropped-d)

*KEY*
x-play muted strings
/-slide up

*NOTES*
This tab should be pretty accurate...Most of the errors are probably in
the strumming pattern and/or the number of times each chord is strum.

INTRO/VERSE
(VERSION ONE-!STUDIO RECORDED METHOD!)
E|-------------------------------------3-3---3--------------|
B|----3---3-3---3---3---3-3/5-5-0--3---3-3---3--3-3-3-3-0-0-|
G|-0--0-x-0-0-x-0-x-0-x-0-0/0-0-0--0-x-0-0-x-0--2-2-2-2-0-0-|
D|-0--2-x-2-2-x-2-x-2-x-2-2/4-4-0--0-x-0-0-x-0--0-0-0-0-0-0-|
A|----3-x-3-3-x-3-x-3-x-3-3/5-5----2-x-2-2-x-2--3-3-3-3-2-2-|
E|---------------------------------3-x-3-3-x-3--------------|

(VERSION TWO-!THE WAY DANIEL PLAYS IT LIVE!)
E|---------------------------2-2-0------3-3---3--------------|
B|----3---3-3---3---3---3-3--3-3-3--3---3-3---3--3-3-3-3-0-0-|
G|-0--0-x-0-0-x-0-x-0-x-0-0--2-2-0--0-x-0-0-x-0--2-2-2-2-0-0-|
D|-0--2-x-2-2-x-2-x-2-x-2-2---------0-x-0-0-x-0--0-0-0-0-0-0-|
A|----3-x-3-3-x-3-x-3-x-3-3---------2-x-2-2-x-2--3-3-3-3-2-2-|
E|----------------------------------3-x-3-3-x-3--------------|
(PLAY ABOVE RIFF ONCE AS AN INTRODUCTION, VERSE IS PLAYED FOUR TIMES)
[ Tab from: http://www.guitartabs.cc/tabs/s/silverchair/pop_song_tab.html ]
E|-----3-|-----------------------------------|
B|-3-3-3-|-----------------3-3-3-3-3-3-3-3-3-|
G|-0-0-0-|-0-0-0-0-0-0-0-0-2-2-2-2-2-2-2-2-2-|
D|-0-0-0-|-0-0-0-0-0-0-0-0-0-0-0-0-0-0-0-0-0-|
A|-2-2-2-|-2-2-2-2-2-2-2-2-x-x-x-x-x-x-x-x-x-|
E|-3-3-3-|-3-3-3-3-3-3-3-3-2-2-2-2-2-2-2-2-2-|
            this part is played quietly in the background
            Daniel did not play this part when I saw them play
            this live
(PLAY FOUR TIMES)
____________________________________________________________________
CHORUS
(GTR 2-tuned in dropped D)
E|----|
B|----|
G|----|
D|-1/-|
A|-1/-|
D|-1/-|

(GTR 1, from here on)
E|-----------------------------|
B|-----------------------------|
G|-6-6--6-6-6-6----------------|
D|-6-6--6-6-6-6--5-5-5-5-5-5-5-|
A|-4-4--4-4-4-4--5-5-5-5-5-5-5-|
E|---------------3-3-3-3-3-3-3-|
(PLAY FOUR TIMES)

(with some weird effect...)
E|-----|
B|-----|
G|--8--|
D|--8--|
A|--6--|
E|-----|
____________________________________________________________________
***********
PLAY VERSE
***********
____________________________________________________________________
PLAY CHORUS THEN FOLLOW WITH THIS:

E|-------------------------------------------------------|
B|-------------------------------------------------------|
G|-8-8--8-8-8-8--6-6-6-6-6-6-6---------x-x-x-------------|
D|-8-8--8-8-8-8--6-6-6-6-6-6-6-5-5-5-3-x-x-x-5-5-5-5-6-6-|
A|-6-6--6-6-6-6--4-4-4-4-4-4-4-5-5-5-3-x-x-x-5-5-5-5-6-6-|
E|-----------------------------3-3-3-1-x-x-x-3-3-3-3-4-4-|
(PLAY THREE TIMES)

E|--------------------------------------------------|
B|--------------------------------------------------|
G|-8-8--8-8-8-8--6-6-6-6-6-6-6----------------------|
D|-8-8--8-8-8-8--6-6-6-6-6-6-6-5-5-5-3--5-5-5-5-6-6-|
A|-6-6--6-6-6-6--4-4-4-4-4-4-4-5-5-5-3--5-5-5-5-6-6-|
E|-----------------------------3-3-3-1--3-3-3-3-4-4-|
____________________________________________________________________
OUTRO
E|------------------------------|
B|------------------------------|
G|------------x-x-x-------------|
D|-5-5--5-5-3-x-x-x-5-5-5-5-6-6-|
A|-5-5--5-5-3-x-x-x-5-5-5-3-6-6-|
E|-3-3--3-3-1-x-x-x-3-3-3-3-4-4-|
(PLAY FOUR TIMES)

On these particular palm mutes, to get the same high pitched sound Daniel
has you have to slide to the top of the fret board (towards the end with
the pick-ups) and palm mute, then slide back down.
Comments