Silverchair - Petrol And Chlorine Chords & Tabs

 

Petrol And Chlorine Chords & Tabs

Silverchair Chords & Tabs

Version: 1 Type: Bass Tab 0 ratings
1 star 2 stars 3 stars 4 stars 5 stars
comments

Petrol And Chlorine Bass Tab

   
#----------------------------------PLEASE NOTE---------------------------------#
#This file is the author's own work and represents their interpretation of the-#
#song. You may only use this file for private study, scholarship, or research.-#
#------------------------------------------------------------------------------#

Silverchair - Petrol And Chlorine
Tuning: C F B E

E|------------------------|-------------------------------------------------------------------|
B|------------------------|-------------------------------------------------------------------|
F|--------------7--7\-/8--|---------------7--7\-/8----------0---2-3-5---7-7-7-----------------|
C|--3-/-8--10-\-----------|--3-/-8--10-\------------0--2-3------------------------------------|

E|--------------------------------------------------------------------------------------------|
B|--------------------------------5-4-------------------------------------------5-4-----------|
F|------------------------------3-----0---------------------------------------3-----0---------|
C|--0-0--2-0--3-3-3--0--2-2-2-0---------3-5-3----0-0--2-0--3-3-3--0--2-2-2--0----------3-5-3--|

E|------------------------------------------9-9-9--------------------------------------9-9-9--|
B|----6-7-6---9-7-6---7-6------6-7-6---9-7-----------6-7-6---9-7-6---7-6---6-7-6---9-7--------|
F|------------------------7-------------------------------------------------------------------|
C|--0------------------------0--------------------0----------------------0--------------------|
[ Tab from: http://www.guitartabs.cc/tabs/s/silverchair/petrol_and_chlorine_btab.html ]
E|--------------------------------------------------------------------------------------------|
B|--------------------------------------------------------------------------------------------|
F|---------2-1--0----------3-5--------------2-1---0----------3-5------------2-1--0------------|
C|--0---0----------0---2-3-------3-3-3---0-----------0---2-3------3-3-3---0---------0---2-3---|

E|--------------------------------------------------------------------------------------------|
B|-----------------------------------------------2---2-2--------------------------------------|
F|--3-5-----------2-1--0----------3-5---------------------3-3---2-2---------------------------|
C|------3-3-3---0---------0---2-3------3-3-3---0---------------------0----0-0---2-0--3-3-3-0--|

E|--------------------------------------------------------------------------------------------|
B|---------------5-4--------------------------------------------------------5-4---------------|
F|------------3-------0-------------------------------------------------3--------0------------|
C|--2-2-2--0----------------3-5-3----0-0--2-0----3-3-3----0---2-2-2--0----------------3-5-3---|

E|--------------------------------------------------------------------------------------------|
B|--------------------------------------------------------------------------------------------|
F|------------3-3---2-2-------------3-3---2-2---------------3-3---2-2-------------3-3---2-2---|
C|--0-0--0-0-------------0-0---0-0---------------0-0---0-0-------------0-0---0-0--------------|

E|--------------------------------------------------------------------------------|-----------|
B|----4-5-4----7-5---------4-5-4---7-5-------4-5-4---7-5---------4-5-4----7-5-----|-----------|
F|-----------------7-------------------7------------------7--------------------7--|-----------|
C|--0-------------------0------------------0-------------------0------------------|--0~-0~-0~-|


================================================================================
Comments