Silverchair - No Association Chords & Tabs

 

No Association Chords & Tabs

Silverchair Chords & Tabs

Version: 2 Type: Tab 0 ratings
1 star 2 stars 3 stars 4 stars 5 stars
comments

No Association Tab

   
Silverchair, no association.
 Tabbed by silverchair_surfing_bird@hotmail.com.
  
NO ASSOCIATION
SILVERCHAIR

**KEY**
PM-palm mute
HR-harmonic
x-play muffled strings
/-slide up
\-slide down

**TUNING**
Dropped D
low to high(DADGBE) 

INTRO
Dsus4+
E|-------10---------|
B|---9------9---9---|
G|-7---7------7---7-|
D|------------------|
A|------------------|
D|------------------|

Verse 1 (bass)

1st chorus
E|------------------------------|
B|------------------------------|  
G|------------------------------|
D|-0-2-2-0-4-3-0-6-5-0-8-7-0-11-|
A|-0-2-2-0-4-3-0-6-5-0-8-7-0-11-|
D|-0-2-2-0-4-3-0-6-5-0-8-7-0-11-|

2nd verse 
E|--------------------------|----------------------------|
B|-----------------------5--|----------------------------|
G|-----------------------5--|----------------------------|
D|-0-2-2--0-2-2-0-2-3-3--5--|-0-2-2--0-2-2-0-2-3-3---x-x-|
A|-0-2-2--0-2-2-0-2-3-3--5--|-0-2-2--0-2-2-0-2-3-3---x-x-|
D|-0-2-2--0-2-2-0-2-3-3-----|-0-2-2--0-2-2-0-2-3-3---x-x-|
PM - - - - - - - - - - - |  HR   PM - - - - - - - -|

E|----------------------|-------------------------|
B|----------------------|-----------------------5-|
G|----------------------|-----------------------5-|
D|-0-2-2--0-2-2-0-2-3-3-|-0-2-2--0-2-2-0-2-3-3--5-|
A|-0-2-2--0-2-2-0-2-3-3-|-0-2-2--0-2-2-0-2-3-3--5-|
D|-0-2-2--0-2-2-0-2-3-3-|-0-2-2--0-2-2-0-2-3-3----|
PM - - - - - - - - - - - - - - - - - - - - - - HR

2nd chorus
E|------------------------------|
B|------------------------------|
G|------------------------------|
D|-0-2-2-0-4-3-0-6-5-0-8-7-0-11-|
A|-0-2-2-0-4-3-0-6-5-0-8-7-0-11-|
D|-0-2-2-0-4-3-0-6-5-0-8-7-0-11-|

E|------------------------------|
B|------------------------------|
G|------------------------------|
D|-0-2-2-0-4-3-0-6-5-0-8-7-0-11-|
A|-0-2-2-0-4-3-0-6-5-0-8-7-0-11-|
D|-0-2-2-0-4-3-0-6-5-0-8-7-0-11-|

E|------------------------------|
B|------------------------------|
G|------------------------------|
D|-0-2-2-0-4-3-0-6-5-0-8-7-0-11-|
A|-0-2-2-0-4-3-0-6-5-0-8-7-0-11-|
D|-0-2-2-0-4-3-0-6-5-0-8-7-0-11-|

E|----------------------------------|
B|----------------------------------|
G|----------------------------------|
D|-0-2-2-0-4-3-4-3-0-6-5-0-8-7-0-11-|
A|-0-2-2-0-4-3-4-3-0-6-5-0-8-7-0-11-|
D|-0-2-2-0-4-3-4-3-0-6-5-0-8-7-0-11-|

3rd verse
E|--------------------------|----------------------|
B|-----------------------5--|----------------------|
G|-----------------------5--|----------------------|
D|-0-2-2--0-2-2-0-2-3-3--5--|-0-2-2--0-2-2-0-2-3-3-|
A|-0-2-2--0-2-2-0-2-3-3--5--|-0-2-2--0-2-2-0-2-3-3-|
D|-0-2-2--0-2-2-0-2-3-3-----|-0-2-2--0-2-2-0-2-3-3-|
PM - - - - - - - - - - | HR  PM - - - - - - - - - |

E|------------------------|------------------------|
B|------------------------|----------------------5-|
G|------------------------|----------------------5-|
D|-0-2-2--0-2-2-0-2-3-3---|-0-2-2--0-2-2-0-2-3-3-5-|
A|-0-2-2--0-2-2-0-2-3-3---|-0-2-2--0-2-2-0-2-3-3-5-|
D|-0-2-2--0-2-2-0-2-3-3---|-0-2-2--0-2-2-0-2-3-3---|
PM - - - - - - - - - - - - - - - - - - - - - - - HR

3rd chorus (same as first)

Interlude
E|-----------------|-----------------|
B|-----------------|-----------------|
G|-----------------|-----------------|
D|-0-2-0-2-0-2-0-2-|-0-2-0-2-0-2-0-2-|
A|-0-2-0-2-0-2-0-2-|-0-2-0-2-0-2-0-2-|
D|-0-2-0-2-0-2-0-2-|-0-2-0-2-0-2-0-2-|

E|-----------------|-----------------|
B|-----------------|-----------------|
G|-----------------|-----------------|
D|-0-2-0-2-0-2-0-2-|-0-2-0-2-0-2-0-2-|
A|-0-2-0-2-0-2-0-2-|-0-2-0-2-0-2-0-2-|
D|-0-2-0-2-0-2-0-2-|-0-2-0-2-0-2-0-2-|

E|--------------------------------------------|
B|--------------------------------------------|
G|--------------------------------------------|
D|--0-2-0-2-0-2-0-2-0-8--0-2-0-2-0-2-0-2-0-10-|
A|--0-2-0-2-0-2-0-2-0-6--0-2-0-2-0-2-0-2-0-8--|
D|--0-2-0-2-0-2-0-2-0-6--0-2-0-2-0-2-0-2-0-8--|
                    PM                   PM
[ Tab from: http://www.guitartabs.cc/tabs/s/silverchair/no_association_tab_ver_2.html ]
E|----------------------------------------------|
B|----------------------------------------------|
G|----------------------------------------------|
D|--0-2-0-2-0-2-0-2-0-8--0-2-0-2-2-0-3-3-0-1-1--|
A|--0-2-0-2-0-2-0-2-0-6--0-2-0-2-2-0-3-3-0-1-1--|
D|--0-2-0-2-0-2-0-2-0-6--0-2-0-2-2-0-3-3-0-1-1--|
                    PM             PM    PM

E|--------------------------------------------|
B|--------------------------------------------|
G|--------------------------------------------|
D|--0-2-0-2-0-2-0-2-0-8--0-2-0-2-0-2-0-2-0-10-|
A|--0-2-0-2-0-2-0-2-0-6--0-2-0-2-0-2-0-2-0-8--|
D|--0-2-0-2-0-2-0-2-0-6--0-2-0-2-0-2-0-2-0-8--|
                    PM                   PM

E|----------------------------------------------|
B|----------------------------------------------|
G|----------------------------------------------|
D|--0-2-0-2-0-2-0-2-0-6--0-2-0-2-2-0-3-3-0-1-1--|
A|--0-2-0-2-0-2-0-2-0-6--0-2-0-2-2-0-3-3-0-1-1--|
D|--0-2-0-2-0-2-0-2-0-6--0-2-0-2-2-0-3-3-0-1-1--|
                    PM             PM    PM

4th verse (clean)
E|-------------------------|-------------------------|
B|-------------------------|-------------------------|
G|-------------------------|-------------------------|
D|-----2-------2-------3---|-----2-------2-------3---|
A|---------------2---3---3-|---------------2---3---3-|
D|-0-2-----0-2-----3-------|-0-2-----0-2-----3-------|

E|-------------------------|-------------------------|
B|-------------------------|-------------------------|
G|-------------------------|-------------------------|
D|-----2-------2-------3---|-----2-------2-------3---|
A|---------------2---3---3-|---------------2---3---3-|
D|-0-2-----0-2-----3-------|-0-2-----0-2-----3-------|

OUTRO
E|-------------------------------|
B|-------------------------------|
G|-------------------------------|
D|-0-2-2-0-4-3-0-6-5-0-8-7-0-11\-|
A|-0-2-2-0-4-3-0-6-5-0-8-7-0-11\-|
D|-0-2-2-0-4-3-0-6-5-0-8-7-0-11\-|

E|-------------------------------|
B|-------------------------------|
G|-------------------------------|
D|-0-2-2-0-4-3-0-6-5-0-8-7-0-11\-|
A|-0-2-2-0-4-3-0-6-5-0-8-7-0-11\-|
D|-0-2-2-0-4-3-0-6-5-0-8-7-0-11\-|
   PM - - - - - - - - - - - - - |

E|---------------------------------|
B|---------------------------------|
G|---------------------------------|
D|-0-2-2-0-2-3-3--1-1-1-1/4-4-4-4--|
A|-0-2-2-0-2-3-3--1-1-1-1/4-4-4-4--|
D|-0-2-2-0-2-3-3--1-1-1-1/4-4-4-4--|

E|---------------------------------|
B|---------------------------------|
G|---------------------------------|
D|-0-2-2-0-2-3-3--1-1-1-1/4-4-4-4--|
A|-0-2-2-0-2-3-3--1-1-1-1/4-4-4-4--|
D|-0-2-2-0-2-3-3--1-1-1-1/4-4-4-4--|

E|---------------------------------|
B|---------------------------------|
G|---------------------------------|
D|-0-2-2-0-2-3-3--1-1-1-1/4-4-4-4--|
A|-0-2-2-0-2-3-3--1-1-1-1/4-4-4-4--|
D|-0-2-2-0-2-3-3--1-1-1-1/4-4-4-4--|

E|------------------------------|
B|------------------------------|
G|------------------------------|
D|-0-2-2-0-2-3-3--1-1-1--4-4-4--|
A|-0-2-2-0-2-3-3--1-1-1--4-4-4--|
D|-0-2-2-0-2-3-3--1-1-1--4-4-4--|
                   (DISTORTION ON)

E|---------------------------------|
B|---------------------------------|
G|---------------------------------|
D|-0-2-2-0-2-3-3--1-1-1-1/4-4-4-4--|
A|-0-2-2-0-2-3-3--1-1-1-1/4-4-4-4--|
D|-0-2-2-0-2-3-3--1-1-1-1/4-4-4-4--|

E|---------------------------------|
B|---------------------------------|
G|---------------------------------|
D|-0-2-2-0-2-3-3--1-1-1-1/4-4-4-4--|
A|-0-2-2-0-2-3-3--1-1-1-1/4-4-4-4--|
D|-0-2-2-0-2-3-3--1-1-1-1/4-4-4-4--|

E|---------------------------------|
B|---------------------------------|
G|---------------------------------|
D|-0-2-2-0-2-3-3--1-1-1-1/4-4-4-4--|
A|-0-2-2-0-2-3-3--1-1-1-1/4-4-4-4--|
D|-0-2-2-0-2-3-3--1-1-1-1/4-4-4-4--|

E|---------------------------------|
B|---------------------------------|
G|---------------------------------|
D|-0-2-2-0-2-3-3--1-1-1-1/4-4-4-4--|
A|-0-2-2-0-2-3-3--1-1-1-1/4-4-4-4--|
D|-0-2-2-0-2-3-3--1-1-1-1/4-4-4-4--|

E|-------------------------|
B|-------------------------|
G|-------------------------|
D|--0-2-2---0-2-2-0-3-3-3--|
A|--0-2-2---0-2-2-0-3-3-3--|
D|--0-2-2---0-2-2-0-3-3-3--|
    PM - -|

 
:: Ultimate Guitar Archive :: 
http://www.ultimate-guitar.com 

 
Comments