Silverchair - No Association Chords & Tabs

 

No Association Chords & Tabs

Silverchair Chords & Tabs

Version: 1 Type: Tab 0 ratings
1 star 2 stars 3 stars 4 stars 5 stars
comments

No Association Tab

   
#----------------------------------PLEASE NOTE---------------------------------#
#This file is the author's own work and represents their interpretation of the #
#song. You may only use this file for private study, scholarship, or research. #
#------------------------------------------------------------------------------#


    song: No Association
  artist: Silverchair
   album: Freak Show
words by: Daniel Johns
music by: Daniel Johns and Ben Gillies

droped "d" tuning
 low to high (D,A,D,G,B,E,)

P.M.___                     palm mute
x                           muffed strings
harm.                        harmonics

intro
w/ delay
e --------------10------------------
b-----------9------9----9-----------
g-*-------7---7------7------------*- play 8x
d-*----7--------------------------*-
a-----------------------------------
d-----------------------------------


        *riff 1*
w/ distortion
e-----------------------------------------
b-----------------------------------------
g-*-------------------------------------*-play 5x
d-*---------------------------------11--*-
a--0-2-2-0-4-3-0-6-5-0-8-7-0--------11----
d--0-2-2-0-4-3-0-6-5-0-8-7-0--------11----


        *riff 2*

p.m. _________________________________   harm.
e---------------------------------------------
b------------------------------------------5--
g------------------------------------------5--
d--0-2-2---------------0-2-2-0-2-3-3-------5--
a--0-2-2---------------0-2-2-0-2-3-3----------
d--0-2-2---------------0-2-2-0-2-3-3----------

        *riff 3*
p.m. _______________________
e--------------------------------------------
b---------------------------------------x-x--
g---------------------------------------x-x--
d--0-2-2------0-2-2-0-2-3-3-------------x-x--
a--0-2-2------0-2-2-0-2-3-3------------------
d--0-2-2------0-2-2-0-2-3-3------------------
[ Tab from: http://www.guitartabs.cc/tabs/s/silverchair/no_association_tab.html ]
       *riff 4*
e-------------------------------------------
b-------------------------------------------
g-*---------------------------------------*-play 3x
d-*---0-2---0-2---0-2---0-2---0-2---------*-
a-----0-2---0-2---0-2---0-2---0-2-----------
d-----0-2---0-2---0-2---0-2---0-2-----------

       *riff 5*
e---------------------------------------
b---------------------------------------
g---------------------------------------
d---0-2---0-2---0-2---0-2---0-2------6--
a---0-2---0-2---0-2---0-2---0-2------6--
d---0-2---0-2---0-2---0-2---0-2------6--

e---------------------------------------
b---------------------------------------
g---------------------------------------
d---0-2---0-2---0-2---0-2---0-2------8--
a---0-2---0-2---0-2---0-2---0-2------8--
d---0-2---0-2---0-2---0-2---0-2------8--

e---------------------------------------
b---------------------------------------
g---------------------------------------
d---0-2---0-2---0-2---0-2---0-2------6--
a---0-2---0-2---0-2---0-2---0-2------6--
d---0-2---0-2---0-2---0-2---0-2------6--

e---------------------------------------
b---------------------------------------
g---------------------------------------
d---0-2---0-2-----------3-------------1-
a---0-2---0-2-----------3-------------1-
d---0-2---0-2-----------3-------------1-



         *riff 6*
I'm not sure about this rif but for the most part it is right

light P.M.__________________________________________________
e---------------------------------------------------------------
b---------------------------------------------------------------
g-*----------------------------------------------------------*--play 4x
d-*----2------2----------3-----------2-------2---------3-----*--
a----------------2---------3--------------------2----------3----
d--0-2---0--2-------2--3------0--2------0--2------2--3----------



          *riff 7*

e----------------------------------------------
b----------------------------------------------
g-*------------------------------------------*-play 5x
d-*------------------------------------------*-
a----0--2--2--0--2--3--3--1--1--1/--4--4--4----
d----0--2--2--0--2--3--3--1--1--1/--4--4--4----

       *riff 8*
p.m. _______________________
e-----------------------------
b-----------------------------
g-----------------------------
d--0-2-2------0-2-2-0-2-3-3---
a--0-2-2------0-2-2-0-2-3-3---
d--0-2-2------0-2-2-0-2-3-3---
Comments