Silverchair - Madman Chords & Tabs

 

Madman Chords & Tabs

Silverchair Chords & Tabs

Version: 2 Type: Tab 0 ratings
1 star 2 stars 3 stars 4 stars 5 stars
comments

Madman Tab

#----------------------------------PLEASE NOTE--------------------------------#
#This file is the author's own work and represents their interpretation of the#
#song. You may only use this file for private study, scholarship, or research.#
#-----------------------------------------------------------------------------#
#-- File created with Instab - http://www.pconline.com/~smcarey/instab.html --#
#-----------------------------------------------------------------------------#

Author/Artist: Silverchair
Title: Madman
Album: Frogstomp
Transcribed by: Glenn Pfeiffer
Email: aspone_glenn@hotmail.com

this is realy hard song to get right as it is so farst
once you get it its easy

key:
/=slide
h=hammer on
PM_=palm mute

--------------------------------|---------------------------------------------
--------------------------------|---------------------------------------------
--------------------------------|---------------------------------------------
-/7---------------7-7---7-7-----|---------------------------------------------
-/5---------------5-5---5-5-----|---------------------------------------------
--0-0-0-0-0-0-0-0-----0-----0-0-|---------------------------------------------
 intro                        x4                                              

-----------------------|------------------------------------------------------
-----------------------|------------------------------------------------------
-----------------------|-7--7-------------------------------------------------
-----------------------|-7--7-------------------------------------------------
-2h0-0h2-0-0h3-0h3-0-0-|-5--5-------------------------------------------------
-2h0-0h2-0-0h3-0h3-0-0-|------------------------------------------------------
 verse: x4 after 4x do this^then repeat the whole of this again               
[ Tab from: http://www.guitartabs.cc/tabs/s/silverchair/madman_tab_ver_2.html ]
-0-----|-0-----|--------------------------------------------------------------
-3-----|-3-----|--------------------------------------------------------------
-2-----|-2-----|--------------------------------------------------------------
-0-----|-0-----|--------------------------------------------------------------
-------|-------|--------------------------------------------------------------
-------|-------|--------------------------------------------------------------
 brigde 1:                                                                    

-----------------|-----------------|------------------------------------------
-----------------|-----------------|------------------------------------------
-7-------7-----7-|---7---7-7-------|------------------------------------------
-7-------7-----7-|---7---7-7-------|------------------------------------------
-5-------5-----5-|---5---5-5-------|------------------------------------------
---0-0-0---0-0---|-0---0-----0-0-0-|------------------------------------------
 bridge 2: Plam mute all of the 6th string notes                              

-----------------|-----------------|------------------------------------------
-----------------|-----------------|------------------------------------------
-----------------|-----------------|------------------------------------------
-----------------|-----------------|------------------------------------------
-2-0-2-0-2-0-0-3-|-0-2-0-2-0-2-2-0-|------------------------------------------
-2-0-2-0-2-0-0-3-|-0-2-0-2-0-2-2-0-|------------------------------------------
 PM___________     _____________                                              

-----------------|------------------------|------------------------|----------
-----------------|------------------------|------------------------|----------
-----------------|------------------------|------------------------|----------
-----------------|------------------------|------------------------|----------
-9-9-9-9-9-9-9-7-|-10-10-10-10-10-10-10-7-|-12-12-12-12-12-12-12-0-|----------
-0-0-0-0-0-0-0-0-|-0--0--0--0--0--0--0--0-|-0--0--0--0--0--0--0--0-|----------
 solo: i just play this danile just plays what he wants                       

-----------------|------------------------------------------------------------
-----------------|------------------------------------------------------------
-----------------|------------------------------------------------------------
-----------------|------------------------------------------------------------
-7-7-7-7-7-7-7-0-|------------------------------------------------------------
-0-0-0-0-0-0-0-0-|------------------------------------------------------------
                                                                              

Comments