Silverchair - Leave Me Out Chords & Tabs

 

Leave Me Out Chords & Tabs

Silverchair Chords & Tabs

Version: 1 Type: Chords 0 ratings
1 star 2 stars 3 stars 4 stars 5 stars
comments

Leave Me Out Chords

   
#----------------------------------PLEASE NOTE---------------------------------#
#This file is the author's own work and represents their interpretation of the #
#song. You may only use this file for private study, scholarship, or research. #
#------------------------------------------------------------------------------#

LEAVE ME OUT by silverchair
Transcribed by Braamo (bpsmith@socs.uts.edu.au)

Given the below combinations, the song goes:
Introduction
Verse x 2
Chorus
Verse
Riff (backed by verse baseline)
Chorus
Bridge
Chorus


Introduction chords:

Bb / / / / / / / 
C / / / / / / /


Verse chords:
   D  D     G     F  D  C# C
E--5--5-----3-----1--5--4--3--|
B--7--7-----3-----1--7--6--5--|
G--7--7-----4-----2--7--6--5--|
D--7--7-----5-----3--7--6--5--|x 4
A--5--5-----5-----3--5--4--3--|
E--------0--3--0--1-----------|
then:
C / / / / / / /
   G  G  G  G  G (E) F
E-------------------------|
B-------------------------|
G-------------------------|
D--5--5--5--5--5-----3----|^ = bend if possible
A--5--5--5--5--5-----3----|
E--3--3--3--3--3--0--1^---|


Chorus Chords:
[ Tab from: http://www.guitartabs.cc/tabs/s/silverchair/leave_me_out_crd.html ]
D / / / / B F (E) F G  x 4
   |         |
   |         |
  \/     \/
F    (E)     F    G
E-------1------------1----3-----|
B-------1------------1----3-----|
G-------2------------2----4-----|
D-------3------------3----5-----|
A-------3------------3----5-----|
E-------1-----0------1----3-----|

A / / / / / / /
G# / / / G F


Riff:

E-----------------------------------------|
B--10--10--10--12^--10--12^^--10--9--8----|
G-----------------------------------------|  ^ = bend
D-----------------------------------------|  ^^ = bend further
A-----------------------------------------|
E-----------------------------------------|


Bridge:

D / / / / / / A
D / / / / / / E
D / / / / / / A
D / / / / / / E
G / / / / / / /
F / / / / / / /
G / / / / / / /
G# / / / Bb / Bb A G#*pause*


Braamo

(bpsmith@socs.uts.edu.au)



Suicidal Dream by Silverchair



        Alright heres the main riffs from Suicial Dream off of the Frogstomp

  cd. I didn't include any timing or anything so you'll have to listen to the

  song to get that.



  Intro/Verse

E|-----------------------------|
B|-----------------------------|
G|*-----4-----4-----4-----4---*|
D|*---4-----4-----4-----4-----*|
A|--2-----------------------0--|
E|--------3-----0-----2--------|

   

  Chorus 

E|--2--2--0--3--|
B|--3--2--0--3--|
G|*-4--3--0--4-*|
D|*-4--4--2--5-*|
A|--2--4--2--5--|
E|-----2--0--3--|





  This riff is played once after the second chorus 

E|-----------------------------|
B|----3--------3--------3------|
G|--4-2------4-2------4-2------|
D|--4-0-5-4--4-0-2-4--4-0-5-4--|
A|--2---5-4--2---2-4--2---5-4--|
E|------3-2------0-2------3-2--|





Email comments, corrections, and complaints to

Voltage@vrb.com

Voltage@ahbqs.com

      or

Brian@idibbs.com
Comments