Silverchair - Learn To Hate Chords & Tabs

 

Learn To Hate Chords & Tabs

Silverchair Chords & Tabs

Version: 2 Type: Tab 0 ratings
1 star 2 stars 3 stars 4 stars 5 stars
comments

Learn To Hate Tab

#----------------------------------PLEASE NOTE---------------------------------#
#This file is the author's own work and represents their interpretation of the #
#song. You may only use this file for private study, scholarship, or research. #
#------------------------------------------------------------------------------#

Okay, this is how I play "Learn To Hate" by Silverchair off of the Freak Show
album.. Enjoy!

Mike (mykool@msn.com)

Verse Riff
E|-----------------------------------------|---------------------------------|
B|-----------------------------------------|---------------------------------|
G|-10-------10-----10-10/12-12---12---12---|-------------------8-8---8---8---|
D|-10-------10-----10-10/12-12---12---12---|-8-7-----7-----7-7-8-8---8---8---|
A|--8--------8------8--8/10-10---10---10-0-|-0-0-----0-----0-0-6-6---6---6-0-|
D|--8--------8------8--8/10-10---10---10-0-|-0-0-----0-----0-0-6-6---6---6-0-|
[ Tab from: http://www.guitartabs.cc/tabs/s/silverchair/learn_to_hate_tab_ver_2.html ]
Chorus Riff
E|---------------------------------|---------------------------------------|
B|---------------------------------|---------------------------------------|
G|---------------------------------|-------------------11-11-11-11-11-11---|
D|-4-4-4-4-4---4-4-4/6-6-6-6---6-6-|-6-0-0-0-0---0-0-0-11-11-11-11-11-11---|
A|-4-4-4-4-4---4-4-4/6-6-6-6---6-6-|-6-0-0-0-0---0-0-0--9--9--9--9--9--9-0-|
D|-4-4-4-4-4---4-4-4/6-6-6-6---6-6-|-6-0-0-0-0---0-0-0--9--9--9--9--9--9-0-|

Verse 4 Overdub (Gtr. 2)
E|----------------------------------------|--------------------------------|
B|----------------------------------------|--------------------------------|
G|----------------------------------------|--------------------------------|
D|---------10-----10-----------12------12-|-----4-------4-----------8----8-|
A|-----8--------8---------10--------------|---------5-----5-----6------6---|
D|-8-----------------8/10-----------10----|-0-----------------6------------|

Outro
E|---------------------------------|---------------------------------------|
B|-7-7-7-7-7-7-7-7-7/9-9-9-9-9-9-9-|-3-3-3-3-3-3-3-3-3-12-12-12-12-12-12\--|
G|*6-6-6-6-6-6-6-6-6/8-8-8-8-8-8-8-|-2-2-2-2-2-2-2-2-2-11-11-11-11-11-11\-*|
D|*4-4-4-4-4-4-4-4-4/6-6-6-6-6-6-6-|-0-0-0-0-0-0-0-0-0--9--9--9--9--9--9\-*|
A|-4-4-4-4-4-4-4-4-4/6-6-6-6-6-6-6-|-0-0-0-0-0-0-0-0-0--9--9--9--9--9--9\--|
D|-4-4-4-4-4-4-4-4-4/6-6-6-6-6-6-6-|-0-0-0-0-0-0-0-0-0--9--9--9--9--9--9\--|

E|-----------------|
B|-----------------|
G|-10--------------|
D|-10--------------|
A|--8--------------|
D|--8--------------|
Comments