Silverchair - Israels Son Chords & Tabs

 

Israels Son Chords & Tabs

Silverchair Chords & Tabs

Version: 1 Type: Tab 0 ratings
1 star 2 stars 3 stars 4 stars 5 stars
comments

Israels Son Tab

#----------------------------------PLEASE NOTE--------------------------------#
#This file is the author's own work and represents their interpretation of the#
#song. You may only use this file for private study, scholarship, or research.#
#-----------------------------------------------------------------------------#


Author/Artist: Silverchair
Title: Isreals Son
Album: Frogstomp
Transcribed by: Luke Nelson
Email: barbwire@winsoft.net.au

Start after a bass intro of 4 bars.

Dropped D Tuning (DADGBE)


Riff1
------------------------------------------------------------------------------
------------------------------------------------------------------------------
-xxxx--xxxx--xxxx-------------------------------------------------------------
-xxxx--xxxx--xxxx-------------------------------------------------------------
-xxxx--xxxx--xxxx------------3------5-------3------5-------3------5-------3---
-xxxx--xxxx--xxxx--3---xx-3h5--0-3h5--xx-3h5--03h5---xx3h5---0-3h5--xx-3h5----
                                                                              

------------------------------------------------------------------------------
------------------------------------------------------------------------------
------------------------------------------------------------------------------
------------------------------------------------------------------------------
------5-------3------5-------3-----5-------3------5--------3-------5----------
-0-3h5--xx-3h5--0-3h5--xx-3h5--03h5--xx-3h5--0-3h5--xx-3h5---0-3h5---xx-3h5---
                                                                              
[ Tab from: http://www.guitartabs.cc/tabs/s/silverchair/israels_son_tab.html ]
------------------------------------------------------------------------------
------------------------------------------------------------------------------
------------------------------------------------------------------------------
------------------------------------------------------------------------------
-3-------5--------3-------5--------3------5--------3-------5------------------
---0-3h5---xx-3h5---0-3h5---xx-3h5---03h5---xx-3h5---0-3h5----xx-5-3-0-23-xx--
                                                                              
Riff 2
------------------------------------------------------------------------------
------------------------------------------------------------------------------
------------------------------------------------------------------------------
------------------------------------------------------------------------------
------------------------------------------------------------------------------
-5-3-0-2-3-xx-5-3-0-2-3-1111/6666-xx-5-3-0-2-3-xx-5-3-0-2-3-1111/6666-0-------
                                                                              
Solo
------------------------------------------------------------------------------
-7^-7^----7^----7^-7^-----7^--x\x\--7^--x\x\----------------------------------
-7^-7^-7^-------7^-7^-7^--7^--------7^----------------------------------------
-------------------7^-5^---------------------0--x\x/--------------------------
------------12/-------5^---------------------0--x\x/--------------------------
------------------------------------------------------------------------------
                                                                              
Outro
------------------------------------------------------------------------------
------------------------------------------------------------------------------
------------------------------------------------------------------------------
------------------------------------------------------------------------------
-0053-------3-5-0053-------3-5-0053-------3-5-0053-------2h3p2-5--x4----------
-0053-0-3h5---5-0053-0-3h5---5-0053-0-3h5---5-0053-0-3h5-------5--------------
                                                                              
(Daniel screams and plays at a fast pace)
------------------------------------------------------------------------------
------------------------------------------------------------------------------
------------------------------------------------------------------------------
------------------------------------------------------------------------------
-0053-------3-----------------------------------------------------------------
-0053-0-3h5----x15------------------------------------------------------------
                                                                              
Outro 2
------------------------------------------------------------------------------
------7^----------------------------------------------------------------------
------7^----------------------------------------------------------------------
-0----------0-----------------------------------------------------------------
-0----------0-----------------------------------------------------------------
-0----------0-----------------------------------------------------------------
                                                                              

Comments