Silverchair - Greatest View Chords & Tabs

 

Greatest View Chords & Tabs

Silverchair Chords & Tabs

Version: 1 Type: Bass Tab

Greatest View Bass Tab

Greatest view by silverchair
Tab by: audioslove_19


Intro
G|---------------------------------------------------------------|
D|------------------------------------------------------3p2-0-2--| X2
A|------------------------------------3-------------3------------|
E|-0--0---5p4p3---0-2h3-0---3--1-1-1-----1-0-1-0-1---------------|


Verse
G|--6-------6---6--------8-------8---8----------------------------------------|
D|7---7-7-7---7------9-9---9-9-9---9-----7-7----11-11-10-10-11-11-------------|
A|-----------------------------------------------------------------7--7-7-7-7-|
E|----------------------------------------------------------------------------|

Verse(cont.)
G|--6-------6---6--------8--------8---8--------------------------|
D|7---7-7-7---7------9-9---9--9-9---9----------------------------|
A|-------------------------------------------1-1-1-1-------------|
E|----------------------------------------------------1-1--3-3---|


Pre-Chorus						After 3rd Time
G|---------2----2h4p2----------------------------|  	|---------------------|
D|------2--------------4p2-----------------------| X3	|---------------------|
A|-0-0-----------------------3--3-----5--5-------|	|--7-7-7-7-7-7-7-7----|
E|-----------------------------------------------|	|---------------------|

[ Tab from: http://www.guitartabs.cc/tabs/s/silverchair/greatest_view_btab.html ]
Chorus
G|-----------------------------------------------------------------------------|
D|-----------------------------------------------------------------------------|
A|-----------------------------------0/1\2---2-2-2-2-2----5-5-5-5--------------|
E|-5--5--5-5-5--5h7--5-5-5-5-5--5h7---------------------------------1-1--3-3---|


Interlude
G|---------2---2h4p2-------------------------------------------2---2h4p2-------------|
D|------2-------------4p2--------2h4p2--------3h5h7---------2-------------4p2--------|
A|-0-0----------------------3--3---------5--5----------0-0--------------------333555-|
E|-----------------------------------------------------------------------------------|

Verse then Chorus

Bridge
G|---------------------------------------------------------------|
D|------------------------------------------------------3p2-0-2--| X2
A|------------------------------------3-------------3------------|
E|-0--0---5p4p3---0-2h3-0---3--1-1-1-----1-0-1-0-1---------------|

Bridge(cont.)
G|-------------------------------------------------------------------------------|
D|-------------------------------------------------------------------------------| 
A|--------------------------------------------------2h4h5----------5h7h8---------|
E|-0--0---5p4p3---0-2h3-0---0h3-1-1--0h1-4-4--3h4-----------3h5h6----------6-----|


Pre-Chorus						After 2nd Time
G|---------2----2h4p2----------------------------|  	|----------------------------|
D|------2--------------4p2-----------------------| X2	|------2-4--2-0--------------|
A|-0-0-----------------------3--3---5--5---3h4h5-|	|-0-0-----------33-55-7777777|
E|-----------------------------------------------|	|----------------------------|


Then its the chorus repeating for a while, and then it ends.