Silverchair - Faultline Chords & Tabs

 

Faultline Chords & Tabs

Silverchair Chords & Tabs

Version: 3 Type: Tab 0 ratings
1 star 2 stars 3 stars 4 stars 5 stars
comments

Faultline Tab

   
silverchair, Faultline.
Tabbed by King Of The Eskimos, kingoftheeskimos@silverchair.org.
  
Song: Faultline
Artist: silverchair (that’s right; small “s”)
Tabbed by King Of The Eskimos, 6/9/01
Drop-D Tuning

Intro:
e--------------------------------------------------
B-----------11---8------8--------------------------
G-----------10---7------7--x-x---------------------
D----0------8----5----5-5--x-x---------------------
A--0-----8--8----5----5-5--x-x---------------------
D------8----8----5----5-5--------------------------

Verse: (“unsuspectin’ brother…”)
e-----2--3--2--0--2-2-----3-3—3p0-------------3-3--
B-----3--3--3--3--3-3-----3-3-----0-1p0-------3-3--
G-----2--2--2--2--2-2-----0-0-----------0-----0-0--
D--0--0-------------------2-2-----------------2-2--
A--0--0----------------3--3-3--------------3--3-3--
D--0--0--------------------------------------------

e----3---------------------------------------------
B----3-------11--11---8----8-----------------------
G----0--x-x--10--10---7----7--x-x------------------
D----2--x-x--8---8----5----5--x-x------------------
A--3-3--x-x--8---8----5--5-5--x-x------------------
D------------8---8----5--5-5-----------------------

e-----2--3--2--0--2-2-----3-3—3p0-------------3-3--
B-----3--3--3--3--3-3-----3-3-----0-1p0-------3-3--
G-----2--2--2--2--2-2-----0-0-----------0-----0-0--
D--0--0-------------------2-2-----------------2-2--
A--0--0----------------3--3-3--------------3--3-3--
D--0--0--------------------------------------------

e----3---------------------------------------------
B----3-------11--11---8----8---11--11--13-----13---
G----0--x-x--10--10---7----7---10--10--12-----12---
D----2--x-x--8---8----5----5---8---8---10-----10---
A--3-3--x-x--8---8----5--5-5---8---8---10--10-10---
D------------8---8----5--5-5---8---8---10--10-10---

e--------------------------------------------------
B-------11--11--8----------------------------------
G--x-x--10--10--7----------------------------------
D--x-x--8---8---5---3-3-5--------------------------
A--x-x--8---8---5---3-3-5--------------------------
D-------8---8---5---3-3-5--------------------------

Chorus: (“you’ll never see the boy…”)
e--------------------------------------------------
B--------------------------------------------------
G--------------------------------------------------
D--0--0-----0-------3-3--3-------1-1--1-------8-8--
A--0--0-x-x-0--x-x--3-3--3--x-x--1-1--1--x-x—-8-8--
D--0--0-x-x-0--x-x--3-3--3--x-x--1-1--1--x-x--8-8—-

e--------------------------------------------------
B--------------------------------------------------
G--------------------------------------------------
D--5----------------0--0-----0-------3-3--3--------
A--5-----------5-0--0--0-x-x-0--x-x--3-3--3--x-x---
D--5-5-5-5-5h7------0--0-x-x-0--x-x--3-3--3--x-x---

e--------------------------------------------------
B--------------------------------------------------
G--------------------------------------------------
D--5-5--5-------8--8-5-------8-8--10--10-------8-8-
A--5-5--5--x-x--8--8-5--x-x--8-8--10--10--x-x--8-8-
D--5-5--5--x-x--8--8-5--x-x--8-8--10--10--x-x--8-8-

e--------------------------------------------------
B--------------------------------------------------
G--------------------------------------------------
D--5---3-3-5---------------------------------------
A--5---3-3-5---------------------------------------
D--5---3-3-5---------------------------------------

Post Chorus: (“ooooooh…”)
e--------------------------------------------------
B--------------------------------------------------
G--------------------------------------------------
D--0--0-7--7-7--7-8--8-5--------------------------
A--0--0-7--7-7--7-8--8-5-----------5-0------------
D--0--0-7--7-7--7-8--8-5-5-5-5-5h7----------------
[ Tab from: http://www.guitartabs.cc/tabs/s/silverchair/faultline_tab_ver_3.html ]
e--------------------------------------------------
B--------------------------------------------------
G--------------------------------------------------
D--0--0-7--7-7--7-8--8-10--3333555-----------------
A--0--0-7--7-7--7-8--8-10--3333555-----------------
D--0--0-7--7-7--7-8--8-10—-3333555-----------------
                           PM_____

Verse, Chorus, Post chorus x2

e--------------------------------------------------
B--------------------------------------------------
G--------------------------------------------------
D--0-----------------------------------------------
A--0-----------------------------------------------
D--0-----------------------------------------------
  (let ring)

Outro Part 1:
e--------------------------------------------------
B--------------------------------------------------
G--------------------------------------------------
D--0------5-4-3--3---3---5-------------------------
A--0-000--5-4-3--3-0-3-0-5-------------------------
E--0-000--5-4-3--3-0-3-0-5-------------------------
     PM_          PM  PM
x8

e--------------------------------------------------
B--------------------------------------------------
G---------------------5----------------------------
D--0--0-6-5-3-0-3-5-0-5----------0-----------------
A--0--0-6-5-3-0-3-5-0-3----------0-----------------
D--0--0-6-5-3-0-3-5-0------------0-----------------
                     (let ring) (let ring)

Outro Part 2:
e--------------------------------------------------
B--------------------------------------------------
G--------------------------------------------------
D--------------------------------------------------
A----------------------------3---------------------
D—-0-0-0-0-0--0-0--0-0-0-3h5-----------------------
   PM___________________

Play that a bunch of times, then:

e--------------------------------------------------
B--------------------------------------------------
G--------------------------------------------------
D--0-0-0-0-5-0-0-3--0-0-0--------------------------
A--0-0-0-0-5-0-0-3—-0-0-0-----3--------------------
D--0-0-0-0-5-0-0-3--0-0-0-3h5----------------------

Occasionally toggled with this:
e--------------------------------------------------
B--------------------------------------------------
G--------------------------------------------------
D--0-0-0-0-5-0-0-3--0-0-0--------------------------
A--0-0-0-0-5-0-0-3—-0-0-0-----3h5------------------
D--0-0-0-0-5-0-0-3--0-0-0-3h5----------------------

After a while, play this:
e--------------------------------------------------
B--------------------------------------------------
G--------------------------------------------------
D--0-0-0-6-5-3--0-3h5------------------------------
A--0-0-0-6-5-3--0-3h5------------------------------
E--0-0-0-6-5-3--0-3h5------------------------------

e--------------------------------------------------
B--------------------------------------------------
G--------------------------------------------------
D--0-0-0-0-5-0-0-3--0-0-0--------------------------
A--0-0-0-0-5-0-0-3—-0-0-0-----3--------------------
D--0-0-0-0-5-0-0-3--0-0-0-3h5----------------------

e--------------------------------------------------
B--------------------------------------------------
G--------------------------------------------------
D--0-0-0-0-5-0-0-3--0-0-0----------0--------------
A--0-0-0-0-5-0-0-3—-0-0-0-----3h5--0--------------
D--0-0-0-0-5-0-0-3--0-0-0-3h5------0--------------

That’s about it (I hope!) This tab is from memory, but silverchair is my fave band, and I know all their songs quite well. Send any comments/suggestions and/or large sums of money to:
kingoftheeskimos@silverchair.org
Thanx for reading my tab, and long live the ‘chair!
 
      
 
:: Ultimate Guitar Archive :: 
http://www.ultimate-guitar.com 

Comments