Silverchair - Do You Feel The Same Chords & Tabs

 

Do You Feel The Same Chords & Tabs

Silverchair Chords & Tabs

Version: 1 Type: Tab 0 ratings
1 star 2 stars 3 stars 4 stars 5 stars
comments

Do You Feel The Same Tab

title:do you feel the same?

artist:Silverchair

tabbed by :Ryan (jerkass316@hotmail.com)
!STANDARD TUNNING!
This is one of the easier songs by silverchair.
I think they are the best band ever and I
wanted to tab one of there songs so there it
is,hope you like it

e----0------------0---------\
b----1------------1---------\
g--2----2--0------------0---\   verse
d--2----2--0--3------3--0---\
a--0----0--0--3------3--0---\
e-------------1------1------\
[ Tab from: http://www.guitartabs.cc/tabs/s/silverchair/do_you_feel_the_same_tab.html ]
e--3--0--3---3---0------\
g--3--1--2---3---1------\
b--0--0--3---0---0---2--\ bridge before course
d--0--2------0---2---2--\
a--2--3------2---3---0--\
e--3---------3----------\

e-1-------------\
b-1-------------\
g-2-----2-------\ bridge before solo
d-3-----2-------\
a-3-----0-------\
e-1-------------\

If you want the solo email me and i wil send it to you.I didn't 
put any of the times or anything or how many times to repeat
cause its not that hard if you listen to it.im pretty sure this is 
the closest and plus it wasent there so I decided to tab it.

Thanx
Comments