Silverchair - Do You Feel The Same Chords & Tabs

 

Do You Feel The Same Chords & Tabs

Silverchair Chords & Tabs

Version: 1 Type: Chords 0 ratings
1 star 2 stars 3 stars 4 stars 5 stars
comments

Do You Feel The Same Chords

   
hi every1 this is my first attempt at writing tabs im working on the rest
of the songs from neon ballroom so b patient im also working on the full
song 4 do u feel the same i just cant b bothered now.sorry if the timeing
is out of the song just listen to it and it will make sense.

tuning-dropped-D low to high (DADGBE)

[ Tab from: http://www.guitartabs.cc/tabs/s/silverchair/do_you_feel_the_same_crd.html ]
   Am                    F
E|--------|------3-----|---------------3--------|
B|----1---|-0-------0--|----1------------1------|
G|--------|---0--------|------2---0--------2----|
D|--------|------------|-3------3----3-------0--|
A|-0------|------------|------------------------|
D|--------|------------|------------------------|

   Am                     F             Fsus2
E|-----------|-----3----|-------------|---------|
B|-----1-----|-0-----0--|-1----1------|---------|
G|-------2---|-0-----0--|-2------2----|-0-------|
D|---------2-|----------|-3--------3--|-3-------|
A|-0---------|----------|-3-----------|-3-------|
D|-----------|----------|-------------|---------|
Comments