Silverchair - Black Tangled Heart Chords & Tabs

 

Black Tangled Heart Chords & Tabs

Silverchair Chords & Tabs

Version: 1 Type: Tab 0 ratings
1 star 2 stars 3 stars 4 stars 5 stars
comments

Black Tangled Heart Tab

   
#----------------------------------PLEASE NOTE---------------------------------#
#This file is the author's own work and represents their interpretation of the #
#song. You may only use this file for private study, scholarship, or research. #
#------------------------------------------------------------------------------#

Song-Black Tangled Heart
Band-silverchair
Album-Neon Ballroom

Tab by Dave Lander

Tablature explanation:

b   : bend
s   : slide
h   : hammer-on
p   : pull-off
x   : muffled string
P.M.: palm mute

Standard tuning

[0:00] (2 guitars, one acoustic, one electric, arranged for one)
e|-----1-------0h1-------------------------------0---------------------0---------------|
B|-------3---------3------1--0h1p0-----------------0-------0---------0---------0-------|
G|---------3---------3--2----------2-----------2-----2-4-2---------2-----2-4-2---------|
D|-(3)-------3-----------------------3-----------------------2-------------------2-----|
A|--1-----------------------------------3p0--------------------2-------------------2---|
E|------------------------------------------0--------------------0-------------------0-|

|-----1-------0h1-------------------------------0-----------------------0-------------|
|-------3---------3------1--0h1p0-----------------0-------0-----------0---------0-----|
|---------3---------3--2----------2-----------2-----2-4-2-----------2-----2-4-2-------|
|-(3)-------3-----------------------3-----------------------2s4s2-----------------2s4-|
|--1-----------------------------------3p0----------------------------------2---------|
|------------------------------------------0----------------------0-----------0-------|


||--------------------------------------------------------0----------0----------0----------0--------||x4
||----------1-----------1-----------1-----------1-----------0----------0----------0----------0------||
||-o----------0-----------0-----------0-----------0-----------0----------0----------0----------0--o-||
||-o------2-----2-----2-----2-----2-----2-----2---------2----------2----------2----------2--------o-||
||-----3-----------0-----------3-----------0--------------------------------------------------------||
||---------------------------------------------------0----------0----------0----------0-------------||
Maybe your luck has changed settle down


[1:03]
      Bb F  Em  (chords implied by melody)
||----1--1--0----|| x4
||----3--1--0----||
||-o--3--2--0----||
||-o--3--3--2--o-||
||----1--3--2----||
||-------1--0----||
Take the rope to my heart and fall


[ Tab from: http://www.guitartabs.cc/tabs/s/silverchair/black_tangled_heart_tab.html ]
||--------------------------------------------------------0----------0----------0----------0--------|
||-------1-----------1-----------1-----------1-----------0----------0----------0----------0------||
||-o----------0-----------0-----------0-----------0-----------0----------0----------0----------0--o-||
||-o------2-----2-----2-----2-----2-----2-----2---------2----------2----------2----------2--------o-||
||-----3-----------0-----------3-----------0--------------------------------------------------------||
||---------------------------------------------------0----------0----------0----------0-------------||
Maybe departure's good ...

[2:16]
      Bb F  Em  (chords implied by melody)
||----1--1--0----|| x4
||----3--1--0----||
||-o--3--2--0----||
||-o--3--3--2--o-||
||----1--3--2----||
||-------1--0----||
Take the rope ....

[2:42]
|------------------------------------------------------|
|------------------------------------------------------|
|------------------------------------------------------|
|-2-2-2-2--2-2-2-2--2-2-2-2--2-2-2-2--2-2-2-2--2-2-2-2-|
|-2-1-1-1--2-1-1-1--2-1-1-1--2-1-1-1--2-1-1-1--2-1-1-1-|
|-0-0-0-0--0-0-0-0--0-0-0-0--0-0-0-0--0-0-0-0--0-0-0-0-|

|-0--0--0--0--0--0--0--0--3--3--|(chords implied by melody)
|-1--0--1--0--1--0--1--1--3--3--|
|-0--0--0--0--0--0--0--0--0--3--|
|-2--2--2--2--2--2--2--0--0--3--|
|-3--2--3--2--3--2--3--2--2--1--|
|----0-----0-----0--------3-----|

|------------------------------------|
|------------------------------------|
|------------------------------------|
|-2-2-2-2--2-2-2-2--2-2-2-2--2-2-2-2-|
|-2-1-1-1--2-1-1-1--2-1-1-1--2-1-1-1-|
|-0-0-0-0--0-0-0-0--0-0-0-0--0-0-0-0-|

[3:32]
      Bb F  Em  (chords implied by melody)
||----1--1--0----|| x4
||----3--1--0----||
||-o--3--2--0----||
||-o--3--3--2--o-||
||----1--3--2----||
||-------1--0----||
Take the rope ....

[3:58]
|------------------------------------------------------|
|------------------------------------------------------|
|------------------------------------------------------|
|-2-2-2-2--2-2-2-2--2-2-2-2--2-2-2-2--2-2-2-2--0-0-0-0-|
|-2-1-1-1--2-1-1-1--2-1-1-1--2-1-1-1--1-1-1-1--0-0-0-0-|
|-0-0-0-0--0-0-0-0--0-0-0-0--0-0-0-0--0-0-0-0--0-0-0-0-|

|------------------------------------|
|------------------------------------|
|------------------------------------|
|-2-2-2-2--2-2-2-2--2-2-2-2--2-2-2-2-|
|-2-2-2-2--1-1-1-1--0-0-0-0--2-2-2-2-|
|-0-0-0-0--0-0-0-0--0-0-0-0--0-0-0-0-|

(drum break)

|---------------------------|
|---------------------------|
|---------------------------|
|-2-2-2-2--2-2-2-2--2-2-2-2-|
|-2-2-2-2--1-1-1-1--0-0-0-0-|
|-0-0-0-0--0-0-0-0--0-0-0-0-|

(drum break)

|---------------------------|
|---------------------------|
|---------------------------|
|-2-2-2-2--2-2-2-2--2-2-2-2-|
|-2-2-2-2--1-1-1-1--0-0-0-0-|
|-0-0-0-0--0-0-0-0--0-0-0-0-|

(drum break)

|---------------------------|
|---------------------------|
|---------------------------|
|-2-2-2-2--2-2-2-2--2-2-2-2-|
|-2-2-2-2--1-1-1-1--0-0-0-0-|
|-0-0-0-0--0-0-0-0--0-0-0-0-|
Comments