Silverchair - Asylum Chords & Tabs

 

Asylum Chords & Tabs

Silverchair Chords & Tabs

Version: 1 Type: Tab

Asylum Tab

   
----------------------------------------------------------------------
			     ASYLUM - Silverchair
-----------------------------------------------------------------------
Tabbed by: Asprology21
Email: benremmert@hotmail.com

Tuning: STANDARD


    Eb        C          G#                    A#
e|-------------------------------------------------|
B|--8--8--8---5-5-5--------------------------------|
G|--8--8--8---5-5-5--------------------------------|
D|--8—-8--8---5-5-5-------6-6--6----------------8--|
A|--6--5--6---3-3-3-------6-6--6----------------8--|
E|------------------------4-4--4----------------6--|
  Contained in my cotton crib, where I feel No turbulence

   Eb                       C
e|------------------------------------------------|
B|--8--8--------------------5--5-5----------------|
G|--8--8--------------------5--5-5----------------|
D|--8--8--------------------5--5-5----------------|
A|--6--6--------------------3--3-3----------------|
E|------------------------------------------------|
   But I can feel it in the night like rain upon my

   G#                          F#m
e|-------------------------------------------------|
B|------------------------------2------------------|
G|-5----------------------------2------------------|
D|-6----------------------------4------------------|
A|-6----------------------------4------------------|
E|-4----------------------------2------------------|
  Skin inside of winter, would you begin to splinter

     Gm            Eb          Gm  F  Eb
e|-----------------------------------------------|
B|---3--------------------------3--1---8--8--8---|
G|---3-------------8------------3--2---8--8--8---|
D|---5-------------8------------5--3---8--8--8---|
A|---5-------------6------------5--3---6--6--6---|
E|---3--------------------------3--1-------------|
   If I decide to recognise my thorns
[ Tab from: http://www.guitartabs.cc/tabs/s/silverchair/asylum_tab.html ]
    G#        Gm           A#      Fm
e|-----------------------------------------------|
B|---4-----------3------------------------1------|
G|---5-----------3---------------7--------1------|
D|---6-----------5---------------8--------3------|
A|---6-----------5---------------8--------3------|
E|---4-----------3---------------6--------1------|
   ‘Cause every time I see your face in a cloud







       F#  Fm  Eb  Gm
e|--------------------------------------------------|
B|--------------------------------------------------|
G|----------1---8---3-------------------------------|
D|----4-----3---8---5-------------------------------|
A|----4-----3---6---5-------------------------------|
E|----2-----1-------3-------------------------------|
   I  feel  no  vio-lence

  G#             Gm           A#      Fm
e|--------------------------------------------------|
B|-4-------------3--------------------1-------------|
G|-5-------------3------------7-------1-------------|
D|-6-------------5------------8-------3-------------|
A|-6-------------5------------8-------3-------------|
E|-4-------------3------------6-------1-------------|
   So tilt the water till it turns me around

       F#   Fm   Eb Gm
e|---------------------------------------------|
B|---------------------------------------------|
G|-----------1----8--3-------------------------|
D|-----4-----3----8--5-------------------------|
A|-----4-----3----6--5-------------------------|
E|-----2-----1-------3-------------------------|
   To  my    own asylum

   G#         Gm       A#    Fm          Eb
e|-----------------------------------------------|
B|----------------------------1----------*8------|
G|-5-----------3-------7------1----------*8------|*Start note of 
D|-6-----------5-------8------3----------*8------| next verse
A|-6-----------5-------8------3----------*6------|
E|-4-----------3-------6------1------------------|
   Dry in the day and fading away in the night

That’s about it. You will need to listen to the song a bit
to get the timing, but it’s all pretty straight forward.
I have written all of this from memory, so there may be a 
few small mistakes, but nothing major. I am quite surprised 
nobody has tabbed this song already… Oh well- enjoy! 
P.S. Happy birthday Lucy- 3



| /  slide up
| \  slide down
| h  hammer-on
| p  pull-off
| ~  vibrato
| +  harmonic
| x  Mute note