Silverchair - Anthem Of The Year Chords & Tabs

 

Anthem Of The Year Chords & Tabs

Silverchair Chords & Tabs

Version: 1 Type: Tab 0 ratings
1 star 2 stars 3 stars 4 stars 5 stars
comments

Anthem Of The Year Tab

Anthem For The Year 2000: there are 2 transcripts from 2 differnt people.

Trancribed by Eamon Davie (reefer@hotmail.com) any comments, queries or 
suggestion would be greatly appriciated.

Main Riff:
w/Dist.
E----------------------E
B----------------3-----B
G----------------2-----G
D-7--5-7-5--3-3--0-0-0-D
A-7--5-7-5--3-3----0-0-A
D-7--5-7-5--5-3----0-0-D

Fill 1:
w/heavy flange and phaser
D------------D
A------------A
D-7-----3----D

Verse 2:
w/comp. wha & possibly phaser
                      x2                            x3
E----------------------E  E--------------------------E
B----------------------B  B--------------------------B
G-----5----4---5-------G  G------5----4---5----------G
D-7-----5----3---------D  D-5^-----5----3------------D
A----------------------A  A--------------------------A
D----------------------D  D--------------------------D
[ Tab from: http://www.guitartabs.cc/tabs/s/silverchair/anthem_of_the_year_tab.html ]
Verse 3:
w/comp. wha & possibly phaser
                     x2   
E---------------------E   E---------------------------E
B---------------------B   B---------------------------B
G---------------------G   G---------------------------G
D-2---3---5-----------D   D-2--3--5--7--9--7-7-9--7-7-D
A---------------------A   A---------------------------A
D---------------------D   D---------------------------D

Song Structure:
Effects & drums
Main Riff x4
Effects
Main Riff x4
Fill 1
Verse 2
Main Riff x4
Verse 3
Effects
Main Riff x8
-------------------------------------------------------------------

silverchair
Neon Ballroom
"Anthem for the Year 2000"
transcribed by Jim Swanson

~ = VIBRATO

DROPPED D TUNING


*CHORUS*
E-------------------------------------
B-------------------------------------
G---------------------------5---------
D-7-7--5--7-5------2--3--3--5--0--0---
A-7-7--5--7-5------2--3--3--3--0--0---
D-7-7--5--7-5------2--3--3-----0--0---


*VERSE*  (play a variation of this)
E---------------------|----------------
B---------------------|----------------
G---------------------|----------------
D---------------------|----------5-----
A--5--5/7~~~~~~~~~~---|--5/7~~~----5---
D---------------------|----------------

*BRIDGE*
E--------------------------------------
B--------------------------------------
G---------------------------5----------
D-7--7-\--------------------5--0-------
A-7--7-\--------------------3--0-------
D-7--7-\-----------------------0-------
Comments