Silverchair - Anthem For The Year 2000 Chords & Tabs

 

Anthem For The Year 2000 Chords & Tabs

Silverchair Chords & Tabs

Version: 5 Type: Tab 0 ratings
1 star 2 stars 3 stars 4 stars 5 stars
comments

Anthem For The Year 2000 Tab

Song: Anthem for the Year 2000
Band: Silverchair
Album: Neon Ballroom
Tunning: Drop D (DADGBe)
Tabbed by: simpleppl@hotmail.com

-------------------------
| b - bend  r - release |
-------------------------

  Fig.1
e|---------------------------|-----------
B|---------------------------|-----------
G|----------------------5----|-----------
D|-7-7--5-7-5----2-3----5-0--|-7----1----
A|-7-7--5-7-5----2-3----3-0--|-7----1----
D|-7-7--5-7-5----2-3------0--|-7----1----
                            8x
[ Tab from: http://www.guitartabs.cc/tabs/s/silverchair/anthem_for_the_year_2000_tab_ver_5.html ]
  Fig.2
e|---------------|-----------------|---------------
B|---------------|-----------------|---------------
G|-2--4---5---5--|------4---5---5--|------4---5----
D|------5---3----|-5b7----5---3----|-5b7----5---3--
A|---------------|-----------------|---------------
D|---------------|-----------------|---------------
                3x                2x

  Fig.3
e|---------------------------
B|---------------------------
G|----------------------5----
D|-7-7--5-7-5-7--2-3----5-0--
A|-7-7--5-7-5-7--2-3----3-0--
D|-7-7--5-7-5-7--2-3------0--

  Fig.4
e|---------------------------
B|---------------------------
G|----------------------5----
D|-7~-------------------5-0--
A|-7~-------------------3-0--
D|-7~---------------------0--

  Fig.5
e|----------------------------------------------
B|----------------------------------------------
G|-----------------------------2-4-2--4-5--7-9--
D|-2----3-5--2-3---------2-3-5------------------
A|----------------2b3r2-------------------------
D|----------------------------------------------


Fig.1         / Fig.5
Fig.2        /  Fig.3 - 6x
Fig.3 - 4x  /   Fig.4 - 2x
Fig.4 - 2x /
Comments