Silverchair - Anas Songopen Fire Chords & Tabs

 

Anas Songopen Fire Chords & Tabs

Silverchair Chords & Tabs

Version: 1 Type: Tab 0 ratings
1 star 2 stars 3 stars 4 stars 5 stars
comments

Anas Songopen Fire Tab

song: ana's song (open fire)
artist: silver chair
album: neon ballroom
tabbed by Joey Wright
normal tuning

 verse
|----------------------------------|
|----------------------------------|
|----888-555-----------------------|
|----888-555--5---5---5---5--------|
|----666-333--5-3-5-3-5-3-5--------|
|----666-333--3-3-3-3-3-3-3--------|

guitar two
|---------------------------------|
|-------------------3------3------|
|-----8------5----3--3-----3------|
|----8--8---5--5------------------|
|---6------3----------------------|
|----------------3-------3--------|

solo (slide from note to note)
|---------------------------------|
|---------------------------------|
|---------------------------------|
|---------------------------------|
|--1---1--10-11--10-3-5-----------|
|---------------------------------|

bridge
|------------------------------|
|------------------------------|
|---3-3-3----------------------|
|---3-3-3--3-3-3---------------|
|---1-1-1--3-3-3---------------|
|----------1-1-1---------------|
Chorus
|----------------------------------------------------------------|
|--------------------------------------1-------1-----1-------1---|
|----1-------1-------------------- --2-2-2-2-2-2-2-2-2-2-2-2-2---|
|--2-2-2-2-2-2-2-----4-4-4-4-4-4-4---2-2-2-2-2-2-2-2-2-2-2-2-2---|
|--2-2-2-2-2-2-2-----4-4-4-4-4-4-4---0-0-0-0-0-0-0-0-0-0-0-0-0---|
|--0-0-0-0-0-0-0-----2-2-2-2-2-2-2-------------------------------|


|-----0-------0-------------------------|
|-----0-------0-------------------------|
|-----1-------1-------------------------|
|---2-2-2-2-2-2-2-----4-4-4-4-4-4-4--2--|
|---2-2-2-2-2-2-2-----4-4-4-4-4-4-4--0--|
|---0-0-0-0-0-0-0-----2-2-2-2-2-2-2-----|

 verse
|----------------------------|
|----------------------------|
|----888-555-----------------|
|----888-555--5---5---5---5--|
|----666-333--5-3-5-3-5-3-5--|
|----666-333--3-3-3-3-3-3-3--|

solo (slide from note to note)
|-------------------------------|
|-------------------------------|
|-------------------------------|
|-------------------------------|
|--1---1--10-11--10-3-5---------|
|-------------------------------|

 verse
|--------------------------------|
|--------------------------------|
|----888-555---------------------|
|----888-555--5---5---5---5------|
|----666-333--5-3-5-3-5-3-5------|
|----666-333--3-3-3-3-3-3-3------|


solo (slide from note to note)
|-------------------------------|
|-------------------------------|
|-------------------------------|
|-------------------------------|
|--1---1--10-11--10-3-5---------|
|-------------------------------|

bridge
|------------------------------|
|------------------------------|
|---3-3-3----------------------|
|---3-3-3--3-3-3---------------|
|---1-1-1--3-3-3---------------|
|----------1-1-1---------------|

Chorus
|----------------------------------------------------------------|
|--------------------------------------1-------1-----1-----1-----|
|----1-------1-----------------------2-2-2-2-2-2-2-2-2-2-2-2-----|
|--2-2-2-2-2-2-2-----4-4-4-4-4-4-4---2-2-2-2-2-2-2-2-2-2-2-2-----|
|--2-2-2-2-2-2-2-----4-4-4-4-4-4-4---0-0-0-0-0-0-0-0-0-0-0-0-----|
|--0-0-0-0-0-0-0-----2-2-2-2-2-2-2-------------------------------|

[ Tab from: http://www.guitartabs.cc/tabs/s/silverchair/anas_songopen_fire_tab.html ]
|-----0--------0-----------------------------|
|-----0--------0-----------------------------|
|-----1--------1-----------------------------|
|---2-2-2-2-2-2-2-----4-4-4-4-4-4-4--2-------|
|---2-2-2-2-2-2-2-----4-4-4-4-4-4-4--0-------|
|---0-0-0-0-0-0-0-----2-2-2-2-2-2-2----------|

|----------------------------------------------------|
|----------------------------------------------------|
|--5-5-5-5-7-7-7-7-9-9-------5-5-5-5-7-7-7-7---------|
|--5-5-5-5-7-7-7-7-9-9-------5-5-5-5-7-7-7-7-2-2-----|
|--3-3-3-3-5-5-5-5-7-7-------3-3-3-3-5-5-5-5-2-2-----|
|--------------------------------------------0-0-----|

|-----------------------------------------------------0--|
|---------------------------------------------------0----|
|--5-5-5-5-----------------------3-----------------------|
|--5-5-5-5-3-3-3-3-2-2---------3---3-----3---------------|
|--3-3-3-3-3-3-3-3-2-2-------1---------3---3---2---------|
|----------1-1-1-1-0-0----------------1--------0---------|

bridge 2
|----------------|
|----------------|
|--5-5-5---------|
|--5-5-5--5-5-5--|
|--3-3-3--5-5-5--|
|---------3-3-3--|

Chorus
|----------------------------------------------------------------|
|--------------------------------------1-------1-----1-----1-----|
|----1--------1----------------------2-2-2-2-2-2-2-2-2-2-2-2-----|
|--2-2-2-2-2-2-2-----4-4-4-4-4-4-4---2-2-2-2-2-2-2-2-2-2-2-2-----|
|--2-2-2-2-2-2-2-----4-4-4-4-4-4-4---0-0-0-0-0-0-0-0-0-0-0-0-----|
|--0-0-0-0-0-0-0-----2-2-2-2-2-2-2-------------------------------|


bridge 2
|--------------------|
|--------------------|
|--5-5-5-------------|
|--5-5-5--5-5-5------|
|--3-3-3--5-5-5------|
|----------3-3-3-----|


Chorus
|--------------------------------------------------------------------------|
|----------------------------------------1--------1--------1------1--------|
|----1--------1----------------------- --2-2-2-2-2-2-2-2-2-2-2-2-----------|
|--2-2-2-2-2-2-2-----4-4-4-4-4-4-4---2-2-2-2-2-2-2-2-2-2-2-2---------------|
|--2-2-2-2-2-2-2-----4-4-4-4-4-4-4---0-0-0-0-0-0-0-0-0-0-0-0---------------|
|--0-0-0-0-0-0-0-----2-2-2-2-2-2-2-----------------------------------------|

bridge 2
|------------------|
|------------------|
|--5-5-5-----------|
|--5-5-5--5-5-5----|
|--3-3-3--5-5-5----|
|---------3-3-3----|

Chorus
|----------------------------------------------------------------|
|--------------------------------------1-------1-----1-----1-----|
|----1--------1----------------------2-2-2-2-2-2-2-2-2-2-2-2-----|
|--2-2-2-2-2-2-2-----4-4-4-4-4-4-4---2-2-2-2-2-2-2-2-2-2-2-2-----|
|--2-2-2-2-2-2-2-----4-4-4-4-4-4-4---0-0-0-0-0-0-0-0-0-0-0-0-----|
|--0-0-0-0-0-0-0-----2-2-2-2-2-2-2-------------------------------|

bridge 2
|----------------|
|----------------|
|--5-5-5---------|
|--5-5-5--5-5-5--|
|--3-3-3--5-5-5--|
|---------3-3-3--|


Chorus
|----------------------------------------------------------------|
|--------------------------------------1-------1-----1-----1-----|
|----1--------1----------------------2-2-2-2-2-2-2-2-2-2-2-2-----|
|--2-2-2-2-2-2-2-----4-4-4-4-4-4-4---2-2-2-2-2-2-2-2-2-2-2-2-----|
|--2-2-2-2-2-2-2-----4-4-4-4-4-4-4---0-0-0-0-0-0-0-0-0-0-0-0-----|
|--0-0-0-0-0-0-0-----2-2-2-2-2-2-2-------------------------------|

well thats it sorry it's so long  :) enjoy!!
Comments