Silverchair - Acid Rain Chords & Tabs

 

Acid Rain Chords & Tabs

Silverchair Chords & Tabs

Version: 1 Type: Tab 0 ratings
1 star 2 stars 3 stars 4 stars 5 stars
comments

Acid Rain Tab

   
#----------------------------------PLEASE NOTE---------------------------------#
#This file is the author's own work and represents their interpretation of the #
#song. You may only use this file for private study, scholarship, or research. #
#------------------------------------------------------------------------------##
From: bed@melbpc.org.au (Andrew Bednarz)
Subject: TAB: acid rain by silverchair


  SILVERCHAIR - Acid Rain - from the Tomorrow EP
--------------------------
  Tabulature by Andrew Bednarz (bed@melbpc.org.au)

    This is a bit dodgy in some places. Riff #1 doesnt sound
quit right.  Also near the end Riff #2 changes a little..  The song
jumps around a lot.  I've tried to include the order of everything.
Just listen to the song and its easy.

RIFF#1
    G                  F#    A
e:----------------------------------------------------|
B:----------------------------------------------------|
G:----------------------------------------------------|
D:--5--5--5--5--5--5---4--4--7------7-----------------|
A:--5--5--5--5--5--5---4--4--7------7-----------------|
E:--3--3--3--3--3--3---2--2--5------5-----------------|


                                                 
RIFF #2
   E
e:----------------------------------------------|
B:----------------------------------------------|
G:-1--------------------------------------------|
D:-2-------0------------------0h2---------------|
A:-2---0h2-------------0--0h2-------------------|
E:-0--------------------------------------------|


                                
RIFF #3
    E              G           D
e:------------------------------|
B:------------------------------|
G:--1--------------4------------|
D:--2--------------5-----------0|
A:--2--------------5-----------5|
E:--0--------------------------5|

ORDER
------

RIFF #1 x1

RIFF #2 x4

RIFF #3 x2





RIFF #1 x1

RIFF #3 x2





RIFF #1 x1 


RIFF#2 x1

RIFF #1 x1


RIFF #3 x4




RIFF #2 x4

RIFF #3 x2





RIFF #1 x1 


RIFF#2 x1

RIFF #1 x1


RIFF #3 x4




RIFF #3 x4 [solo on top of everything from here on]

RIFF #1 x1 


RIFF#2 x1

RIFF #1 x1


RIFF#2 x1

RIFF #1 x1


RIFF#2 x1

RIFF #1 x1


RIFF #3 x4




RIFF #2 x8

   --== Bed ==--
---------------------
  bed@melbpc.org.au
---------------------
[ Tab from: http://www.guitartabs.cc/tabs/s/silverchair/acid_rain_tab.html ]
From bed@melbpc.org.au Mon Aug 21 09:10:27 1995
Received: from post-office.nevada.edu (post-office.nevada.edu [131.216.1.11]) by alf2.tcd.ie (8.6.10/8.6.10) with ESMTP id JAA23493 for ; Mon, 21 Aug 1995 09:10:21 +0100
Received: from emu.melbpc.org.au (root@emu.melbpc.org.au [203.12.152.2]) by post-office.nevada.edu (8.6.12/8.6.4) with ESMTP id BAA21522 for ; Mon, 21 Aug 1995 01:06:51 -0700
Received: from dialup-25.melbpc.org.au (dialup-25.melbpc.org.au [203.12.153.35]) by emu.melbpc.org.au (8.6.9/8.6.9) with SMTP id SAA01733 for ; Mon, 21 Aug 1995 18:06:12 +1000
Date: Mon, 21 Aug 1995 18:06:12 +1000
Message-Id: 
X-Sender: bed@popa.melbpc.org.au
X-Mailer: Windows Eudora Version 1.4.4
Mime-Version: 1.0
Content-Type: text/plain; charset="us-ascii"
To: guitar@nevada.edu
From: bed@melbpc.org.au (Bed)
Subject: acid rain
Status: O

SILVERCHAIR - Acid Rain - from the Tomorrow EP
--------------------------
  Tabulature by Andrew Bednarz (bed@melbpc.org.au)

    This is a bit dodgy in some places. Riff #1 doesnt sound
quit right.  Also near the end Riff #2 changes a little..  The song
jumps around a lot.  I've tried to include the order of everything.
Just listen to the song and its easy.

RIFF#1
    G                  F#    A
e:----------------------------------------------------|
B:----------------------------------------------------|
G:----------------------------------------------------|
D:--5--5--5--5--5--5---4--4--7------7-----------------|
A:--5--5--5--5--5--5---4--4--7------7-----------------|
E:--3--3--3--3--3--3---2--2--5------5-----------------|



RIFF #2
   E
e:----------------------------------------------|
B:----------------------------------------------|
G:-1--------------------------------------------|
D:-2-------0------------------0h2---------------|
A:-2---0h2-------------0--0h2-------------------|
E:-0--------------------------------------------|



RIFF #3
    E              G           D
e:------------------------------|
B:------------------------------|
G:--1--------------4------------|
D:--2--------------5-----------0|
A:--2--------------5-----------5|
E:--0--------------------------5|

ORDER
------

RIFF #1 x1

RIFF #2 x4

RIFF #3 x2





RIFF #1 x1

RIFF #3 x2





RIFF #1 x1


RIFF#2 x1

RIFF #1 x1


RIFF #3 x4




RIFF #2 x4

RIFF #3 x2





RIFF #1 x1


RIFF#2 x1

RIFF #1 x1


RIFF #3 x4




RIFF #3 x4 [solo on top of everything from here on]

RIFF #1 x1


RIFF#2 x1

RIFF #1 x1


RIFF#2 x1

RIFF #1 x1


RIFF#2 x1

RIFF #1 x1


RIFF #3 x4




RIFF #2 x8
   --== Bed ==--
---------------------
  bed@melbpc.org.au
---------------------


ACID RAIN by silverchair
tabbed by Evan( engdm@ix.netcom.com)

This is a good song off the tomorrow single.  It's just a main riff and a
bunch of chord progressions.

h-hammer on
intro
     G                    D         A
E--------------------------------------------
B--------------------------2--2------------
G--------------------------3--3----2------
D----0---0--0--0--0-----0--0----2-----
A----2---2--2--2--2-----0--0----0-----
E----3---3--3--3--3----------------------

main riff

E----------------------------------------------
B----------------------------------------------
G----------------------------------------------
D----------------------------------------------
A------------------5---------------5h7------
E----0--0--5h7------0---5h7-------------

verse and chorus
during the verse this is played slow, and during the chorus its played a
little bit faster.
      E      G      D
E------------3--------2----
B------------3--------3----
G----1------0--------2----
D----2------0--------0----
A----2------2--------0----
E------------3--------------

questions, comments, or if you want the solo, mail me.
Evan

Comments