Silver Ginger 5 - Church Of The Broken Hearted Chords & Tabs

 

Church Of The Broken Hearted Chords & Tabs

Silver Ginger 5 Chords & Tabs

Version: 2 Type: Tab 0 ratings
1 star 2 stars 3 stars 4 stars 5 stars
comments

Church Of The Broken Hearted Tab

   
From the album: Black Leather Mojo
by SiLVER GiNGER 5

INTRO

     C                          E
Eb--------------------------------------------------------|Eb
Bb-------------15^(17)15-13-12--------12-15^(17)-13-12----|Bb
Gb---12-12-12-------------------13-13---------------------|Gb
Db--------------------------------------------------------|Db
Ab--------------------------------------------------------|Ab
Eb--------------------------------------------------------|Eb

    F                          C
Eb--------------15^(17)-13-12-15-----------------------------|Eb
Bb----------13--------------------15^(17)-15^15-13-----------|Bb
Gb--14-14-----------------------------------------14-12--Gb--| X2
Db-----------------------------------------------------------|Db
Ab-----------------------------------------------------------|Ab
Eb-----------------------------------------------------------|Eb


N.C                  E              F
If hate is black and love is white
                       C
Then doubts a shade of grey
                     E
When everything that made it right
   F                       D
Is every why it's wrong to stay

   F                         C
It hurts you to believe your mind
    G       Am
And time is ages
       D
You're back in her again
     Am
'Cos here's where you came in
    F
But before you're home
                    G7
You got to know the way to turn

        C
Welcome home
       A#            F       C
To the church of the broken hearted
     A#         F     C
Your back where you belong
        A#         F
And the songs they play
       Dm
Are so right
         F              A#           C////
For that broken hearted time of your life


E//// F//// C////


The pain is born of fear and doubt
And it eats inside
Emotions that come teeming out
Are all the ones you tried to hide
And late at night the seizure starts
And stays till morning

The devils that they send
Say the weekend ain't your friend
It's a universal theme
But you've got company

Chorus


Then:

C5//// B5/ A#/ A/ G#////////////////


SOLO
[ Tab from: http://www.guitartabs.cc/tabs/s/silver_ginger_5/church_of_the_broken_hearted_tab_ver_2.html ]
Eb----------------------------------------------------|Eb
Bb------------------H-P--------------11-------8-------|Bb
Gb---------10^10--10 8 10--7-------10^10--8-7---------|Gb
Db--8-8-8---------------------9-------------------10--|Db
Ab----------------------------------------------------|Ab
Eb----------------------------------------------------|Eb


Eb----------------------------------------------------|Eb
Bb----11^-11^--9-8-9-8--------------------------------|Bb
Gb--8------------------8------------------------------|Gb
Db-----------------------8--------8-------------------|Db
Ab--------------------------11-10---11-10-11----------|Ab
Eb-------------------------------------------8-7-6----|Eb


Eb-------------18-----------------18---------15-------|Eb
Bb-----------18^18^16-15-----18^18^-18^16-15----------|Bb
Gb--15-15-15-------------16---------------------17----|Gb
Db----------------------------------------------------|Db
Ab----------------------------------------------------|Ab
Eb----------------------------------------------------|Eb


Eb-----18^16-18-16-15---------------------------------|Eb
Bb--16----------------17--17-17-17-18-20-----13-------|Bb
Gb----------------------------------------17----------|Gb
Db----------------------------------------------------|Db
Ab----------------------------------------------------|Ab
Eb----------------------------------------------------|Eb


Eb-----------------H--P-------------------------------|Eb
Bb--13-15 15^(16)13-15-13-----------------------------|Bb
Gb-------------------------13-12-------------12-------|Gb
Db-------------------------------14-14-14-15----------|Db
Ab----------------------------------------------15----|Ab
Eb----------------------------------------------------|Eb


Eb----------------------------------------------------|(Fast widdly bit)
Bb--13-13-15-15^(16)13-15-13--------------------------|Bb
Gb----------------------------13-12-------------12----| Gb
Db----------------------------------14-14-14-15-------| Db
Ab------------------------------------------------15--|Ab
Eb----------------------------------------------------|Eb


Repeat chorus

And on last line play:


	 G#             A#           C
For that broken hearted time of your life


(I'm not sure if the solo is completely right and I can't do the fast bit yet.
So if any one has any comments/alterations/friendly advice please feel free to e-mail
me at the address below.)


WRiTTEN by GiNGER
TRANSCRiBED bY SEAN MORRiS - schitzophonic1@yahoo.co.uk
Comments