Silkstone - Can You Hear Me Chords & Tabs

 

Can You Hear Me Chords & Tabs

Silkstone Chords & Tabs

Version: 1 Type: Tab 0 ratings
1 star 2 stars 3 stars 4 stars 5 stars
comments

Can You Hear Me Tab

   
/ - slide Up
\ - Slide Down

Can you hear me - Silkstone

Eb-tuning = Eb-Ab-Db-Gb-Bb-Eb

Intro:
   "Dsus2"    "Cadd9"      "G"
e|-------0-----------0-----------0-----3/5\3-2---|
B|-----3---3-------3---3-------3---3-----------3-|
G|---2-------2---0-------0---0-------0-----------|
D|-0---------------------------------------------|
A|-------------3---------------------------------|
E|-------------------------3---------------------|

   "Dsus2"     Cadd9"      "G"
e|-------0-----------0-----------0---------------3-|
B|-----3---3-------3---3-------3---3-----------0---|
G|---2-------2---0-------0---0-------0-------0-----|
D|-0---------------------------------------0-------|
A|-------------3-------------------------2---------|
E|-------------------------3-----------3-----------|
[ Tab from: http://www.guitartabs.cc/tabs/s/silkstone/can_you_hear_me_tab.html ]
Verse:
      D           C               G
My heart's on the run, don't think anyone
F         A        D
feels the way I do now
        C                G      F
Running wild, don't need anyone telling 
A           D
me to touch ground
         C              G
Her blue eyes, wish for nothing more than
   F        A     D    
to have her by my side
         C    G                   F      A             D         
If only I can make her stay, this time I know it feels right

Pre-chorus
D       C          G
I don't wanna live without her, oh no
I don't wanna live without her, oh no

Chorus:
D  C     G   
Yeah, yeah
                       D
Can you hear me when I say
C        G
Yeah, yeah

Verse:
My heart's open wide, don't think anyone needs
Her like I do now
Butterflies try to tell me that she's the one I'm all about

Bridge:
           D                       C           
There's no right or wrong, but I'm sure that I can
G                       C         G    
Make her feel the way I think she should
           D                      C
There's no weak or strong and I'm sure she'll be mine
    G                C     G
If she would only care
        D                     C
Cause I am who I am and she's all that I want
G
Wherever she's I'll be, yeah!

Repeat chorus
Comments