Sikth - Skies Of The Millenium Night Chords & Tabs

 

Skies Of The Millenium Night Chords & Tabs

Sikth Chords & Tabs

Version: 1 Type: Tab 0 ratings
1 star 2 stars 3 stars 4 stars 5 stars
comments

Skies Of The Millenium Night Tab

   
Artist: SikTh
Title: Skies Of The Millenium Night
Album: The Trees Are Dead & Dried Out, Wait For Something Wild
Tabber: a_guy_called_richard@hotmail.com

Tuning: C# G# C# F# A# D# (Drop D, half a step down)

This is a very complicated song. All the parts that are numbered
are played in conjunction with another guitar playing the
corresponding part on that guitar... if that makes sense.

but here you go, the full tab for skies of the millenium night.
the first full one on the net might i add :)

enjoy

<----------- Left Guitar ----------->

Part 1:
|-----------------------------------------------|
|--8----8----x--x--x--11----11----10--12--10----|
|--9----9----x--x--x--0-----0-------------------|
|--5----5----x--x--x--8-----8-----7---9---7-----|
|-----------------------------------------------|
|-----------------------------------------------|

|-----------------------------12----15----14----10--|
|--8----8----x--x--x--11----------------------------|
|--9----9----x--x--x--0-------9-----12----11----7---|
|--5----5----x--x--x--8-----------------------------|
|---------------------------------------------------|
|---------------------------------------------------|

Part 2: Play twice...
|----------------------------------------------------|
|----------------------------------------------------|
|--17----17--17----17----17--17----17----17----17----|
|--15----15--15----15----15--15----15----15----15----|
|----------------------------------------------------|
|----------------------------------------------------|

|------------------------------------------------|
|------------------------------------------------|
|----19------19----19------19----19----19----19--|
|----17------17----17------17----17----17----17--|
|------------------------------------------------|
|------------------------------------------------|

|----------------------------------------------------|
|--17----17--17----17----17--17----17----17----17----|
|----------------------------------------------------|
|--14----14--14----14----14--14----14----14----14----|
|----------------------------------------------------|
|----------------------------------------------------|

|------------------------------------------------|
|----15------15----15------15----15----15----15--|
|----14------14----14------14----14----14----14--|
|----12------12----12------12----12----12----12--|
|------------------------------------------------|
|------------------------------------------------|

...with this in the end        \/ whamy bad dive
|-----------------------------10/------10------|
|----15------15----15--------------------------|
|----14------14----14---------7/-------7-------|
|----12------12----12----0---------------------|
|------------------------0---------------------|
|------------------------0---------------------|

Part 3: Play twice
|-------------------------------------------------------|
|---------------------------------------3----6----15/---|
|------------------------------0--4--0------------------|
|---------------------0--3--0---------------------------|
|--4----------------------------------------------------|
|-------0--0--0--3--------------------------------------|
PM      .  .  .
|---------------------------------------------------------------|
|-----------3----7----14/---0--5--0--0--4--0--0--5--0--0--4--0--|
|---------------------------------------------------------------|
|--0--3--0------------------------------------------------------|
|---------------------------------------------------------------|
|---------------------------------------------------------------|

Part 4: Play twice
|-------------------------------------------------------|
|---------------------------------------3----14/--------|
|------------------------------0--4--0------------------|
|---------------------0--3--0---------------------------|
|--4-----------------------------------------------4----|
|-------0--0--0--3--------------------------------------|
PM      .  .  .
|-------------------------------------------------------------|
|-------------------------------------------------------------|
|-------------------------0--4--0--0--5--0--0--4--0--0--3--0--|
|----------------0--3--0--------------------------------------|
|-------------------------------------------------------------|
|--0--0--0--3-------------------------------------------------|
PM .  .  .

Part 5: Mute the bottom 2 strings with your left hand too
|--------------------------------------------------------------------|
|---------------------------0-----------------------------------0----|
|---------------------------0-----------------------------------0----|
|--------------------------------------------------------------------|
|--0--0--0----0--0--0--0---------0--0--0--0--0----0--0--0--0---------|
|--0--0--0----0--0--0--0---------0--0--0--0--0----0--0--0--0---------|
PM .  .  .    .  .  .  .         .  .  .  .  .    .  .  .  .
|--------------------------------------------------------------------|
|---------------------------------0----------------------------------|
|---------------------------------0----------------------------------|
|--------------------------------------------------------------------|
|--0--0--0--0--0----0--0--0--0---------0--0--0--0--0--0--0--0--0--0--|
|--0--0--0--0--0----0--0--0--0---------0--0--0--0--0--0--0--0--0--0--|
PM .  .  .  .  .    .  .  .  .         .  .  .  .  .  .  .  .  .  .
|--------------------------------------------------------------------|
|---------------------------0-----------------------------------0----|
|---------------------------0-----------------------------------0----|
|--------------------------------------------------------------------|
|--0--0--0----0--0--0--0---------0--0--0--0--0----0--0--0--0---------|
|--0--0--0----0--0--0--0---------0--0--0--0--0----0--0--0--0---------|
PM .  .  .    .  .  .  .         .  .  .  .  .    .  .  .  .

|--------------------------------------------------------------------|
|---------------------------------0----------------------------------|
|---------------------------------0----------------------------------|
|--------------------------------------------------------------------|
|--0--0--0--0--0----0--0--0--0---------0--0--0--0--0--0--0--0--0--0--|
|--0--0--0--0--0----0--0--0--0---------0--0--0--0--0--0--0--0--0--0--|
PM .  .  .  .  .    .  .  .  .         .  .  .  .  .  .  .  .  .  .

Part 6: Play twice...
|---------------------------1-----------------------------------1----|
|---------------------------1-----------------------------------1----|
|--------------------------------------------------------------------|
|--------------------------------------------------------------------|
|--3--3--3----3--3--3--3---------3--3--3--3--3----3--3--3--3---------|
|--3--3--3----3--3--3--3---------3--3--3--3--3----3--3--3--3---------|
PM .  .  .    .  .  .  .         .  .  .  .  .    .  .  .  .
|----------------------1----------------------------------------|
|----------------------1----------------------------------------|
|---------------------------------------------------------------|
|---------------------------------------------------------------|
|--3--3--3----3--3--3-------3--3--3--3--3--3--3--3--3--3--3--3--|
|--3--3--3----3--3--3-------3--3--3--3--3--3--3--3--3--3--3--3--|
PM .  .  .    .  .  .       .  .  .  .  .  .  .  .  .  .  .  .
|---------------------------1-----------------------------------1----|
|---------------------------1-----------------------------------1----|
|--------------------------------------------------------------------|
|--------------------------------------------------------------------|
|--0--0--0----0--0--0--0---------0--0--0--0--0----0--0--0--0---------|
|--0--0--0----0--0--0--0---------0--0--0--0--0----0--0--0--0---------|
PM .  .  .    .  .  .  .         .  .  .  .  .    .  .  .  .
|---------------------------------1----------------------------------|
|---------------------------------1----------------------------------|
|--------------------------------------------------------------------|
|--------------------------------------------------------------------|
|--0--0--0--0--0----0--0--0--0---------0--0--0--0--0--0--0--0--0--0--|
|--0--0--0--0--0----0--0--0--0---------0--0--0--0--0--0--0--0--0--0--|
PM .  .  .  .  .    .  .  .  .         .  .  .  .  .  .  .  .  .  .
... with this on the end
|--------------------|
|--0--5--0--0--4--3--|
|--------------------|
|--------------------|
|--------------------|
|--------------------|

Part 7: Play that alot, timing varies slighty.
|--------------------------------------------------------------------------------|
|--3----3--3----3----3--3----3-----------------3-------------------3----3----3---|
|--6----6--6----6----6--6----6-----------------6-------------------6----6----6---|
|--------------------------------------------------------------------------------|
|--------------------------------------------------------------------------------|
|---------------------------------11/-----------------11/------------------------|

Part 8:
|----------------------------------------|
|----------------------------------------|
|--17----17--17----17----17--17----17----|
|--15----15--15----15----15--15----15----|
|----------------------------------------|
|----------------------------------------|


Very slight pause while right guitar does his part.


Part 9: Comes in with this at the end of right guitars part:
|--------------------|
|--------------------|
|--------------------|
|--------------------|
|--------------------|
|----------10/-------|


Play the second half of Part 1 again

Play Part 2 again

Play Part 6 again

Play Part 4 x4 with...

    \/ Whammy bar bends \/
|-------------------|-------------------|
|-------------------|-------------------|
|--7b---------------|-------------------|
|-------------------|-------------------|
|-------------------|-------------------|
|-------------------|--0b---------------|

Play Part 7 again

Play Part 8 again

Play Part 7 again

Play Part 8 again

Part 10: Play 4 times
|--------------------------------------|
|--------------------------------------|
|--------------------------------------|
|----------------------5----5----x--x--|
|--------4-------------4----4----x--x--|
|--0--0--3----0--0--0------------------|
PM .  .       .  .  .

|-----------------------------------------------------------|
|--------------------------------------3/--15---------------|
|--0--4--0--0--5--0--0--5--4--0--4--0-----------------------|
|-----------------------------------------------------------|
|-----------------------------------------------------------|
|----------------------------------------------0--0--0--12\-|
PM                                             .  .  .

Part 11:
|---------------------------------------------------|
|--8----8----x--x--x--11----11----10--12--10/-------|
|--9----9----x--x--x--0-----0-----------------------|
|--5----5----x--x--x--8-----8-----7---9---7/--------|
|---------------------------------------------------|
|---------------------------------------------------|


Pause while bass does its bit.


Play Part 2 again, this time without the whammy
		   bar dives at the end


Part 12:
                             L L  R       L L  R
|-----------------------------------------------------|
|-----------------------------------------------------|
|--5----5--5----5----5--5-----------------------------|
|--3----3--3----3----3--3------7--14/15-----7--17/19--|
|----------------------------5------------5-----------|
|-----------------------------------------------------|
                             L L  R
|----------------------------------------|
|----------------------------------------|
|--7----7--7----7----7--7---------16/17--|
|--5----5--5----5----5--5------7---------|
|----------------------------5-----------|
|----------------------------------------|
                             L L  R       L L  R   R
|-----------------------------------------------------|
|-----------------------------------------------------|
|--9----9--9----9----9--9---------16/17-----------19--|
|--7----7--7----7----7--7------7------------7--17-----|
|----------------------------5------------5-----------|
|-----------------------------------------------------|
                             L L  R
|----------------------------------------|
|----------------------------------------|
|--7----7--7----7----7--7---------19/21--|
|--5----5--5----5----5--5------7---------|
|----------------------------5-----------|
|----------------------------------------|


Part 13: Repeat until the end of the song
   L  L  R          L  L  R          L  L  R      L  L  R
|-------------------------------------------------------------|
|-------------------------------------------------------------|
|--------11/12p0---------------------------14p0---------12p0--|
|-----9----------------9--12/14p0-------9------------9--------|
|--7----------------7----------------7------------7-----------|
|-------------------------------------------------------------|

   L  L  R          L  L  R          L  L  R      L  L  R
|-------------------------------------------------------------|
|-------------------------------------------------------------|
|--------11/12p0---------------------------14p0---------12p0--|
|-----9----------------9--12/14p0-------9------------9--------|
|--7----------------7----------------7------------7-----------|
|-------------------------------------------------------------|

   L  L  R          L  L  R          L  L  R      L  L  R
|-------------------------------------------------------------|
|-------------------------------------------------------------|
|--------11/12p0---------------------------16p0--------14p-0--|
|-----7----------------7--12/14p0-------5------------5--------|
|--5----------------5----------------3------------3-----------|
|-------------------------------------------------------------|

<----------- Right Guitar ----------->

Part 1:
|---------------------------------------------|
|------------x--x--x--11----x--x--------------|
|--9----9----x--x--x--0-----x--x--9--12--9----|
|--5----5----x--x--x--8-----x--x--5--8---5----|
|---------------------------------------------|
|---------------------------------------------|

|-------------------------------------------------|
|------------x--x--x--11--------------------------|
|--9----9----x--x--x----------9----12----11----7--|
|--5----5----x--x--x--8-------5----8-----7-----4--|
|-------------------------------------------------|
|-------------------------------------------------|

Part 2: Something along these lines.
	Play twice...
|----------------------------------------|
|-----------------------1----1----1------|
|----2------2----2-----------------------|
|----------------------------------------|
|----------------------------------------|
|----------------------------------------|

|-------------------------------------------|
|--1----1--1----1----1--0----0----0----0----|
|-------------------------------------------|
|-------------------------------------------|
|-------------------------------------------|
|-------------------------------------------|

|----------------------------------------|
|----1------1----1------3----3----3------|
|----------------------------------------|
|----------------------------------------|
|----------------------------------------|
|----------------------------------------|
[ Tab from: http://www.guitartabs.cc/tabs/s/sikth/skies_of_the_millenium_night_tab.html ]
|-------------------------------------------|
|--0----0--0----0----0--0----1----1----1----|
|-------------------------------------------|
|-------------------------------------------|
|-------------------------------------------|
|-------------------------------------------|

...with this at the end
|----------------------------10/--------10----|
|--0----0--0----0----0--0---------------------|
|----------------------------7/----7/---7-----|
|---------------------------------------------|
|----------------------------------5/---------|
|---------------------------------------------|

Part 3: Play twice
|------------------------------------------------------|
|------------------------------------------------------|
|------------------------------------------------------|
|-------------------------------------------------3----|
|--4------------------x--x--x--x--x--x--0----3---------|
|-------0--0--0--3----x--x--x--x--x--x-----------------|
PM      .  .  .
|--------------------------------------------------------------|
|--------------------------------------------------------------|
|--------------------------0--4--0--0--5--0--0--4--0--0--3--0--|
|---------------------3----------------------------------------|
|--x--x--x--0----3---------------------------------------------|
|--x--x--x-----------------------------------------------------|

Part 4: Play twice
|----------------------------------------------------|
|------------------------------------3----14/--------|
|---------------------------0--4--0------------------|
|---------------------x--x---------------------------|
|--4------------------x--x----------------------4----|
|-------0--0--0--3-----------------------------------|
PM      .  .  .
|-------------------------------------------------------------|
|-------------------------------------------------------------|
|-------------------------0--4--0--0--5--0--0--4--0--0--3--0--|
|----------------0--3--0--------------------------------------|
|-------------------------------------------------------------|
|--0--0--0--3-------------------------------------------------|
PM .  .  .

Part 5: Mute the bottom 2 strings with your left hand too
|--------------------------------------------------------------------|
|---------------------------0-----------------------------------0----|
|---------------------------0-----------------------------------0----|
|--------------------------------------------------------------------|
|--0--0--0----0--0--0--0---------0--0--0--0--0----0--0--0--0---------|
|--0--0--0----0--0--0--0---------0--0--0--0--0----0--0--0--0---------|
PM .  .  .    .  .  .  .         .  .  .  .  .    .  .  .  .
|--------------------------------------------------------------------|
|---------------------------------0----------------------------------|
|---------------------------------0----------------------------------|
|--------------------------------------------------------------------|
|--0--0--0--0--0----0--0--0--0---------0--0--0--0--0--0--0--0--0--0--|
|--0--0--0--0--0----0--0--0--0---------0--0--0--0--0--0--0--0--0--0--|
PM .  .  .  .  .    .  .  .  .         .  .  .  .  .  .  .  .  .  .
|--------------------------------------------------------------------|
|---------------------------0-----------------------------------0----|
|---------------------------0-----------------------------------0----|
|--------------------------------------------------------------------|
|--0--0--0----0--0--0--0---------0--0--0--0--0----0--0--0--0---------|
|--0--0--0----0--0--0--0---------0--0--0--0--0----0--0--0--0---------|
PM .  .  .    .  .  .  .         .  .  .  .  .    .  .  .  .

|--------------------------------------------------------------------|
|---------------------------------0----------------------------------|
|---------------------------------0----------------------------------|
|--------------------------------------------------------------------|
|--0--0--0--0--0----0--0--0--0---------0--0--0--0--0--0--0--0--0--0--|
|--0--0--0--0--0----0--0--0--0---------0--0--0--0--0--0--0--0--0--0--|
PM .  .  .  .  .    .  .  .  .         .  .  .  .  .  .  .  .  .  .

Part 6: Play twice...
|---------------------------1-----------------------------------1----|
|---------------------------1-----------------------------------1----|
|--------------------------------------------------------------------|
|--------------------------------------------------------------------|
|--3--3--3----3--3--3--3---------3--3--3--3--3----3--3--3--3---------|
|--3--3--3----3--3--3--3---------3--3--3--3--3----3--3--3--3---------|
PM .  .  .    .  .  .  .         .  .  .  .  .    .  .  .  .
|----------------------1----------------------------------------|
|----------------------1----------------------------------------|
|---------------------------------------------------------------|
|---------------------------------------------------------------|
|--3--3--3----3--3--3-------3--3--3--3--3--3--3--3--3--3--3--3--|
|--3--3--3----3--3--3-------3--3--3--3--3--3--3--3--3--3--3--3--|
PM .  .  .    .  .  .       .  .  .  .  .  .  .  .  .  .  .  .
|---------------------------1-----------------------------------1----|
|---------------------------1-----------------------------------1----|
|--------------------------------------------------------------------|
|--------------------------------------------------------------------|
|--0--0--0----0--0--0--0---------0--0--0--0--0----0--0--0--0---------|
|--0--0--0----0--0--0--0---------0--0--0--0--0----0--0--0--0---------|
PM .  .  .    .  .  .  .         .  .  .  .  .    .  .  .  .
|---------------------------------1----------------------------------|
|---------------------------------1----------------------------------|
|--------------------------------------------------------------------|
|--------------------------------------------------------------------|
|--0--0--0--0--0----0--0--0--0---------0--0--0--0--0--0--0--0--0--0--|
|--0--0--0--0--0----0--0--0--0---------0--0--0--0--0--0--0--0--0--0--|
PM .  .  .  .  .    .  .  .  .         .  .  .  .  .  .  .  .  .  .
... with this on the end
|--------------------|
|--0--5--0--0--4--3--|
|--------------------|
|--------------------|
|--------------------|
|--------------------|

Part 7: Play alot of times, timing varies slighty.
	Different to what guitar 1 plays aswell, so
	listen carefully.
|--------------------------------------------------------------------------------|
|----3-------------------3----3----3----x--3----3--3----3----3--3----3-----------|
|----6-------------------6----6----6----x--6----6--6----6----6--6----6-----------|
|---------------------------------------x----------------------------------------|
|--------------------------------------------------------------------------------|
|-----------11/-----3-----------------------------------------------------11/----|

Part 8:
|---------------------------------|
|--6----6--6----6----6--6----6----|
|--3----3--3----3----3--3----3----|
|---------------------------------|
|---------------------------------|
|---------------------------------|

Part 9:
|-------------------------------------------------------------------------|
|--------------------------------x--x--------------------------------3/---|
|--------------------------------x--x--0--4--0--5--0--5--4--0--4--5-------|
|----------------------5----5----x--x-------------------------------------|
|--------4------------------4---------------------------------------------|
|--0--0-------0--0--0-------3---------------------------------------------|
PM .  .       .  .  .
|--------------------------------------------------------------------------|
|--15---------------------------------x--x--x--11--------------------------|
|--------------------------------9----x--x--x----------9----12----11----7--|
|---------------------------5----5----x--x--x--8-------5----8-----7-----4--|
|--------------------------------------------------------------------------|
|--------0--0--0--12/------------------------------------------------------|
PM       .  .  .


Play the second half of Part 1 again

Play Part 2 again

Play Part 6 again, but this time like this: Play twice
|-----------------------------------------------------------5---------|
|--------------------------------------------------0--1--3------------|
|--------------------------------------0--5--0--4----------------5----|
|----------------------3-----------------------------------------3----|
|--------5-------------3----3-----------------------------------------|
|--0--0--4----0--0--0-------3----0--0---------------------------------|
PM .  .       .  .  .            .  .
|-----------------------------------------------------------------------|
|-----------------------------------------------------------------------|
|--------------------------------------0--0--0--4--0--5--4--0--4--0-----|
|----------------------3---------------------------------------------2--|
|--------5-------------3----3-------------------------------------------|
|--0--0--4----0--0--0-------3----0--0-----------------------------------|
PM .  .       .  .  .            .  .
|---------------------------1-----------------------------------1----|
|---------------------------1-----------------------------------1----|
|--------------------------------------------------------------------|
|--------------------------------------------------------------------|
|--0--0--0----0--0--0--0---------0--0--0--0--0----0--0--0--0---------|
|--0--0--0----0--0--0--0---------0--0--0--0--0----0--0--0--0---------|
PM .  .  .    .  .  .  .         .  .  .  .  .    .  .  .  .
|---------------------------------1----------------------------------|
|---------------------------------1----------------------------------|
|--------------------------------------------------------------------|
|--------------------------------------------------------------------|
|--0--0--0--0--0----0--0--0--0---------0--0--0--0--0--0--0--0--0--0--|
|--0--0--0--0--0----0--0--0--0---------0--0--0--0--0--0--0--0--0--0--|
PM .  .  .  .  .    .  .  .  .         .  .  .  .  .  .  .  .  .  .

Play Part 4 x4 with...

    \/ Whammy bar bends \/
|-------------------|-------------------|
|-------------------|-------------------|
|--7b---------------|-------------------|
|-------------------|-------------------|
|-------------------|-------------------|
|-------------------|--0b---------------|


Play Part 7 again

Play Part 8 again

Play Part 7 again

Play Part 8 again

Part 10:
|--------------------------------|
|--------------------------------|
|--------------------------------|
|--------4-------------------x-x-|
|--------4-------------3--3------|
|--0--0--3----0--0--0--3--3------|
PM .  .       .  .  .
---------------------------------------------------------|
|--------------------------------------3/-15-------------|
|--0--4--0--0--5--0--0--5--4--0--4--0--------------------|
|--------------------------------------------------------|
|--------------------------------------------------------|
|-------------------------------------------0--0--0--12\-|

Part 11:
|---------------------------------------------|
|------------x--x--x--11----x--x--------------|
|--9----9----x--x--x--0-----x--x--9--12--9----|
|--5----5----x--x--x--8-----x--x--5--8---5----|
|---------------------------------------------|
|---------------------------------------------|

Pause while bass does its bit.


Play Part 2 again, this time without the whammy
		   bar dives at the end


Part 12:
                             L L  R       L L  R
|-----------------------------------------------------|
|-----------------------------------------------------|
|--5----5--5----5----5--5-----------------------------|
|--3----3--3----3----3--3------7--14/15-----7--17/19--|
|----------------------------5------------5-----------|
|-----------------------------------------------------|
                             L L  R
|----------------------------------------|
|----------------------------------------|
|--7----7--7----7----7--7---------16/17--|
|--5----5--5----5----5--5------7---------|
|----------------------------5-----------|
|----------------------------------------|
                             L L  R       L L  R   R
|-----------------------------------------------------|
|-----------------------------------------------------|
|--9----9--9----9----9--9---------16/17-----------19--|
|--7----7--7----7----7--7------7------------7--17-----|
|----------------------------5------------5-----------|
|-----------------------------------------------------|
                             L L  R
|----------------------------------------|
|----------------------------------------|
|--7----7--7----7----7--7---------19/21--|
|--5----5--5----5----5--5------7---------|
|----------------------------5-----------|
|----------------------------------------|

Part 13: Play twice
   L  L  R          L  L  R          L  L  R      L  L  R
|-------------------------------------------------------------|
|-------------------------------------------------------------|
|--------11/12p0---------------------------14p0---------12p0--|
|-----9----------------9--12/14p0-------9------------9--------|
|--7----------------7----------------7------------7-----------|
|-------------------------------------------------------------|

   L  L  R          L  L  R          L  L  R      L  L  R
|-------------------------------------------------------------|
|-------------------------------------------------------------|
|--------11/12p0---------------------------14p0---------12p0--|
|-----9----------------9--12/14p0-------9------------9--------|
|--7----------------7----------------7------------7-----------|
|-------------------------------------------------------------|

   L  L  R          L  L  R          L  L  R      L  L  R
|-------------------------------------------------------------|
|-------------------------------------------------------------|
|--------11/12p0---------------------------16p0--------14p-0--|
|-----7----------------7--12/14p0-------5------------5--------|
|--5----------------5----------------3------------3-----------|
|-------------------------------------------------------------|

Part 14: Plays while left guitar is still playing Part 13.
	 Repeat until the end of the song
   L  L   R          L  L   R          L  L   R      L  L  R
|---------14/15p0-----------------------------17p0---------15p0--|
|-----12----------------12--15/17p0-------12------------12-------|
|--9-----------------9-----------------9-------------9-----------|
|----------------------------------------------------------------|
|----------------------------------------------------------------|
|----------------------------------------------------------------|

   L  L   R          L  L   R          L  L   R      L  L  R
|---------14/15p0-----------------------------17p0---------15p0--|
|-----12----------------12--15/17p0-------12------------12-------|
|--9-----------------9-----------------9-------------9-----------|
|----------------------------------------------------------------|
|----------------------------------------------------------------|
|----------------------------------------------------------------|

   L  L   R          L  L   R          L  L   R      L  L  R
|---------19\17p0----------17\15p0------------15p0---------14p0--|
|-----10----------------10----------------8------------8---------|
|--7-----------------7-----------------5------------5------------|
|----------------------------------------------------------------|
|----------------------------------------------------------------|
|----------------------------------------------------------------|

Aaaaaaaaaaaaaaaaaaawesome. If you can see any mistakes, email me or
leave a comment. its a big tab, so help would be appreciated :)


The Legend.
Comments