Sikth - Peep Show Chords & Tabs

 

Peep Show Chords & Tabs

Sikth Chords & Tabs

Version: 2 Type: Tab 0 ratings
1 star 2 stars 3 stars 4 stars 5 stars
comments

Peep Show Tab

TAB COMPLETED BY: pulseofamaggot666@hotmail.com/Mike Galea.....

*This Is My Favourite Sikth Song On The Album "The Tree's Are Dead And Dried Out"...
This Was Me And Tahls Song So This Goes To The Only Girl I Ever Loved!!!

TUNING: (C# G# C# F# A# D#) or just drop D..it sounds pretty much the same.

INRTO:
|-----------------------------------------------------------------|
|-----------------------------------------------------------------|
|-22222-44-5555-9-9-9-9-12-11-9-7-77777-7799----------------------|
|-22222-xx-xxxx-x-x-x-x--x-x--x-x-xxxxx-xxxx----------------------|
|-00000-22-3333-7-7-7-7-10-9--7-5-55555-5577----------------------|
|-----------------------------------------------------------------|

|-----------------------------------------------------------------|
|-----------------------------------------------------------------|
|-22222-44-5555-9-9-9-9-12-11-9-7-77777-7799----------------------|
|-22222-xx-xxxx-x-x-x-x--x-x--x-x-xxxxx-xxxx----------------------|
|-00000-22-3333-7-7-7-7-10-9--7-5-55555-5577----------------------|
|-----------------------------------------------------------------|

|------------------------------------------------------7-10-12----|
|----------------------------------------------------5------------|
|-99999-1111-12-12-12-16-16-16-16-14-12-11-9-99999----------------|
|-xxxxx-x-x---x--x--x--x--x--x--x--x--x--x-x-xxxxx----------------|
|-77777-9-9--10-10-10-14-14-14-14-12-10--9-7-77777----------------|
|-----------------------------------------------------------------|

|-----------------------------------------------------------------|
|-----------------------------------------------------------------|
|-2222222-8-9-99-99-----------------------------------------------|
|-2222222-x/x-xx-xx--7/0000-000-55555544--------------------------|
|-0000000-5/7-77-77--x/xxxx-xxx-xxxxxxxx--------------------------|
|--------------------7/0000-000-33333322--------------------------|

VERSE:
|---------0----------------0-----1-0------------0-----------------|
|-------0---0-----------------0-------0------6-----6--------------|
|-----5-------5---------------------------------------0-----------|
|---2-----------2--------2-----------------3--------------3-------|
|-0---------------0---3-------------------------------------------|
|----------------------------------------3----------------0-------|

|---------0----------------0---1-0--------------0-----------------|
|-------0---0----------------0------0--------6-----6--------------|
|-----5-------5---------------------------------------0-----------|
|---2-----------2-------2------------------3----------------------|
|-0---------------0---3-------------------------------------------|
|----------------------------------------3------------------------|

|---------0----------------0---1-0--------------0-----------------|
|-------0---0----------------0------0---------6----6--------------|
|-----5-------5--------------------------------------0------------|
|---2-----------2-------2------------------3------------3---------|
|-0---------------0---3-------------------------------------------|
|----------------------------------------3--------------0---------|

|----------0---------------0---1-0--------------------------------|
|--------0---0---------------0------0-----------------------------|
|-------5------5-------------------------------10-9-10------------|
|-----2----------2------2-------------------7---------------------|
|---0--------------0--3-------------------8-----------------------|
|-------------------------------------------------------17/5------|

CHORUS:
|---------------------------------------|-------15------12-------------|
|---------------------------------------|------------------------15-12-|play
|-2222222-5555-5-5-5--------------------|-12-14----1214----12-14-------|3X
|-2222222-5555-5-5-5--555555-000000-22--|------------------------------|
|-0000000-3333-3-3-3--555555-000000-22--|------------------------------|
|---------------------333333-000000-00--|------------------------------|
                                         (this is the second guitar)4x
last part of chorus
|-----------------------------------------------------------------|
|------------------------------------------12h13------------------|
|-2222222-5555-5-5-5-------------------4h5------------------------|
|-2222222-5555-5-5-5--555555-000000-------------------------------|
|-0000000-3333-3-3-3--555555-000000-------------------------------|
|---------------------333333-000000-------------------------------|

INTRO 2:
|-----------------------------------------------------------------|
|-----------------------------------------------------------------|
|-2222222-44-5555-9-9-9-9-12-11--9-7-77777-7799-------------------|
|-2222222-xx-xxxx-x-x-x-x--x--x--x-x-xxxxx-xxxx-------------------|
|-0000000-22-3333-7-7-7-7-10--9--7-5-55555-5577-------------------|
|-----------------------------------------------------------------|

|-----------------------------------------------------------------|
|-----------------------------------------------------------------|
|-2222222-44-5555-9-9-9-9-12-11--9-7-77777-7799-------------------|
|-2222222-xx-xxxx-x-x-x-x--x--x--x-x-xxxxx-xxxx-------------------|
|-0000000-22-3333-7-7-7-7-10--9--7-5-55555-5577-------------------|
|-----------------------------------------------------------------|

|------------------------------------------------------17p12h15p12|
|---------------------------------------------------5p0-----------|
|-99999-1111-12-12-12-16-16-16-16-14-12-11-9-99999----------------|
|-xxxxx-x-x---x--x--x--x--x--x--x--x--x--x-x-xxxxx----------------|
|-77777-9-9--10-10-10-14-14-14-14-12-10--9-7-77777----------------|
|-----------------------------------------------------------------|

|---------------------------8-7-5-3-------------------------------|
|-------------------------5---------------------------------------|
|-2222222-8-9-99-99-----4---------------10-9-10-------------------|
|-2222222-x/x-xx-xx--7/---------------7---------------------------|
|-0000000-5/7-77-77--x/-------------8-----------------------------|
|--------------------7/-------------------------------------------|
[ Tab from: http://www.guitartabs.cc/tabs/s/sikth/peep_show_tab_ver_2.html ]
VERSE 2:
|---------0----------------0-----1-0------------0-----------------|
|-------0---0-----------------0-------0------6-----6--------------|
|-----5-------5---------------------------------------0-----------|
|---2-----------2--------2-----------------3--------------3-------|
|-0---------------0---3-------------------------------------------|
|----------------------------------------3----------------0-------|

|---------0----------------0-----1-0------------------------------
|-------0---0-----------------0-------0-------------10------------
|-----5-------5-------------------------------9--10----10--9------
|---2-----------2--------2------------------7-----------------10--
|-0---------------0---3------------------8------------------------
|-----------------------------------------------------------------

|------------------------|
|--------------------10--|
|------------9-10-12-----|
|----9-10-12-------------|
|-10---------------------|
|------------------------|

BRIDGE 1:
|-------------------|
|-------------------|
|-222/5555-777-555--|play 2X
|-222/5555-xxx-xxx--|
|-000/5555-555-333--|
|-------------------|

BRIDGE 2:
|--------------------------------------------------------------------|
|--------------------------------------------------------------------|
|-222-4444-555-9999-777777-1212-12-12-1414-14-14---------------------|
|-222-xxxx-xxx-xxxx-xxxxxx--x-x--x--x--x-x--x--x---------------------|
|-000-2222-333-7777-555555-1010-10-10-1212-12-12---------------------|
|--------------------------------------------------------------------|

BRIDGE 3:
|-------------------------20----------------19-----------------------|
|-17---------15-----------17----------------15-----------------------|
|--------------------------------------------------------------------|
|--------------------------------------------------------------------|
|--------------------------------------------------------------------|
|--------------------------------------------------------------------|

BRIDGE 4:
|--------------------------------------------------------------------|
|--------------------------------------------------------------------|
|-222-4444-555-9999-777777-1212-12-12-1414-14-14--222-4444-222-9-7---|
|-222-xxxx-xxx-xxxx-xxxxxx--x-x--x--x--x-x--x--x--222-xxxx-222-x-x---|
|-000-2222-333-7777-555555-1010-10-10-1212-12-12--000-2222-000-7-5---|
|--------------------------------------------------------------------|

BRIDGE 5
|-7-----0-----7-----0---------0------2------3------5------7----------|
|--------------------------------------------------------------------|
|--------------------------------------------------------------------|
|--------------------------------------------------------------------|
|--------------------------------------------------------------------|
|--------------------------------------------------------------------|

VERSE 3:
|-------------------------0---1----3-------0----0--------------------|
|--------3------3-----------0---0----0-------0----0-------0----------|
|-----5----5------5----------------------5--------------0------------|
|---2--------2---------2------------------------------3--------------|
|-0------------------3-----------------------------------------------|
|--------------------------------------3------------0----------------|


|-------------------------0---1----3----------0----0----|
|--------3------3-----------0---0----0------6---6-------|
|-----5----5------5-----------------------------------0-|
|---2--------2---------2-----------------3--------------|
|-0------------------3----------------------------------|
|--------------------------------------3----------------|

|--------------6---6------------------------------------|
|-------3-0------0---0----------------------------------|
|-----5-----------------5--------5---4---2---0----------|
|---2---------------------3-7---------------------------|
|-0----------0------------------------------------------|
|-------------------------------------------------------|

|---------0------0---0--------------------------------------------------|
|-------0---0------0---0------------10---------------------------12-13--|
|-----5-------5------5---5------5-9----9-5----------------12-14---------|
|---2-----------------------3-7------------7-----9-10-12----------------|
|-0-------------------------------------------10------------------------|
|-----------------------------------------------------------------------|

*BACK TO CHORUS

OUTRO:
|-----------------------------------------------------------------|
|-----------------------------------------------------------------|
|-22222-44-5555-9-9-9-9-12-11-9-7-77777-7799----------------------|
|-22222-xx-xxxx-x-x-x-x--x-x--x-x-xxxxx-xxxx----------------------|
|-00000-22-3333-7-7-7-7-10-9--7-5-55555-5577----------------------|
|-----------------------------------------------------------------|

|-----------------------------------------------------------------|
|-----------------------------------------------------------------|
|-22222-44-5555-9-9-9-9-12-11-9-7-77777-7799----------------------|
|-22222-xx-xxxx-x-x-x-x--x-x--x-x-xxxxx-xxxx----------------------|
|-00000-22-3333-7-7-7-7-10-9--7-5-55555-5577----------------------|
|-----------------------------------------------------------------|

|--------------------------------------------------------0-12H15P12|
|------------------------------------------------------------------|
|-99999-1111-12-12-12-16-16-16-16-14-12-11-9-99999--5-0------------|
|-xxxxx-x-x---x--x--x--x--x--x--x--x--x--x-x-xxxxx-----------------|
|-77777-9-9--10-10-10-14-14-14-14-12-10--9-7-77777-----------------|
|------------------------------------------------------------------|

|---------------------------8-7-5-3-------------8--3---------------|
|-------------------------5----------1-------6---------------------|
|-2222222-8-9-99-99-----4---------------0--2-----------------------|
|-2222222-x/x-xx-xx--7/--------------------------------7/0---------|
|-0000000-5/7-77-77--x/--------------------------------x/x---------|
|--------------------7/--------------------------------7/0---------|

Thats All Of It!!!!!

Any Questions Or Any Request On Tbas Please Email Me

pulseofamaggot666@hotmail.com

Thanks..(Kill The Punk Live The HardCore)
Comments