Sik - Ashley Chords & Tabs

 

Ashley Chords & Tabs

Sik Chords & Tabs

Version: 1 Type: Tab 0 ratings
1 star 2 stars 3 stars 4 stars 5 stars
comments

Ashley Tab

   
Standard Tuning: EADGBe
Tabber: Timmy Rasmussen, guitarist of SIK

Key:
h=hammer-on

  (INTRO/VERSE 1)
e|--------------------------------------|
B|--------------------------------------|
G|4-4-4-4-------------------------------| x2
D|4-4-4-4-4-4-4-4-2-2-2-4-4-4-4-4-------|
A|2-2-2-2-4-4-4-4-2-2-2-4-4-4-4-4-------|
E|--------2-2-2-2-0-0-0-2-2-2-2-2-------|

  (INTRO/VERSE 2)
e|----------------------------------------------|
B|----------------------------------------------|
G|----------------------------------------------|  x2
D|6-6-6-6-4-4-4-4-2-2-2-2-2-2-2-2-4-4-4-4-------|
A|6-6-6-6-4-2-2-2-2-2-2-2-2-2-2-2-4-4-4-4-------|
E|4-4-4-4-2-2-2-2-0-0-0-0-0-0-0-0-2-2-2-2-------|

NOW PLAY THE (INTRO/VERSE 1) x2 AGAIN BECAUSE IT NOW TURNS INTO JUST THE VERSE 1, SAME 
THE (INTRO/VERSE 2), IT IS JUST VERSE 2
PLAY (VERSE 1) x2 AGAIN
PLAY (VERSE 2) x2 AGAIN

  (CHORUS)
e|----------------------------------------------------------------------|
B|----------------------------------------------------------------------|
G|----------------------------------------------------------------------|
D|6-6-6-6-6-6-6-6-4-4-4-4-4-4-4-4-2-2-2-2-2-2-2-2-2-2-2-2-2-2-2-4-------|
A|6-6-6-6-6-6-6-6-4-4-4-4-4-4-4-4-2-2-2-2-2-2-2-2-2-2-2-2-2-2-2-4-------|
E|4-4-4-4-4-4-4-4-2-2-2-2-2-2-2-2-0-0-0-0-0-0-0-0-0-0-0-0-0-0-0-2-------|
[ Tab from: http://www.guitartabs.cc/tabs/s/sik/ashley_tab.html ]
e|------------------------------------------------------------------------|
B|------------------------------------------------------------------------|
G|--------------------------------6-6-6-6-6-6-6-6-6-6-6-6-6-6-------------|
D|6-6-6-6-6-6-6-6-4-4-4-4-4-4-4-4-6-6-6-6-6-6-6-6-6-6-6-6-6-6-----6-------|
A|6-6-6-6-6-6-6-6-4-4-4-4-4-4-4-4-4-4-4-4-4-4-4-4-4-4-4-4-4-4-4h6-6-------|
E|4-4-4-4-4-4-4-4-2-2-2-2-2-2-2-2---------------------------------4-------|

e|------------------------------------|
B|------------------------------------|
G|------------------------------------|
D|6-6-6-6-6-6-6-4-4-4-4-4-4-4-4-------|
A|6-6-6-6-6-6-6-4-4-4-4-4-4-4-4-------|
E|4-4-4-4-4-4-4-2-2-2-2-2-2-2-2-------|

PLAY (VERSE 1) x2
PLAY (VERSE 2) x2
PLAY (VERSE 1) x2
PLAY (VERSE 2) x2
PLAY (VERSE 1) x2
PLAY (VERSE 2) x2
PLAY CHORUS

  (SOLO)
e|5-5-5-5----------------------------------|-7-7-7-7-7-7-7-7-7-7-7-7-------|
B|--------5-5-5-5-3-3-3-5-5-5-5-5----------|-7-7-7-7-7-7-7-7-7-7-7-7-------|
G|--------------------------------------x2-|-------------------------------|
D|-----------------------------------------|-------------------------------|
A|-----------------------------------------|-------------------------------|
E|-----------------------------------------|-------------------------------|

e|7-7-7/8/9-9-9-9-9-9-9-9/10-10-10-12-12-12-12-12-------|
B|7-7-7/8/9-9-9-9-9-9-9-9/10-10-10-12-12-12-12-12-------|
G|------------------------------------------------------|
D|------------------------------------------------------|
A|------------------------------------------------------|
E|------------------------------------------------------|

PLAY (VERSE 1) x2
PLAY (VERSE 2) x2
YOU DONT PLAY VERSE 1 AT ALL HERE BECAUSE ITS JUST BASS GUITAR THEN YOU COME IN AND PLAY 
2) x2 THEN GO INTO THE CHORUS AND THEN THE SONG IS OVER. IF YOU HAVE ANY QUEASTIONS 
ME AT timrazmo@prodigy.net
ROCK N'ROLL
Comments