Sigur Ros - Olsen Olsen Chords & Tabs

 

Olsen Olsen Chords & Tabs

Sigur Ros Chords & Tabs

Version: 1 Type: Tab 1 rating
1 star 2 stars 3 stars 4 stars 5 stars
comments

Olsen Olsen Tab

Band Name: Sigur Ros
Song Title; Olsen Olsen
Album Title: Agaetis byrjun
Tabbed by: Casey C.

 

      Tuning - DGDGBe - Drop E & A down two steps.


*****************************


    Main Riff

e ------------------------------------------------
B ------------------------------------------------
G ------------------------------------------------
D ------------------------------------------------
G --2---2---2---2---2---2---0---0---0---0---0---0-
D 0---0---0---0---0---0---2---2---2---2---2---2---

******************************

Main riff stops and this riff kicks in.
    

    Flute tabbed for Guitar. 
[ Tab from: http://www.guitartabs.cc/tabs/s/sigur_ros/olsen_olsen_tab.html ]
e ------------------------------------------------------------------
B 15v----15p-14/-12/-10--8h-10p-8----15-------15--------------------
G --------------------------------11----12-11----12-14--11-12-11----
D ---------------------------------------------------------------12-  2x 
G ------------------------------------------------------------------
D ------------------------------------------------------------------

******************************

The next riff follows the same outline as the flute riff, just with a lower pitch:


   Riff 2 

e -----------------------------------------------
B -----------------------------------------------
G ------7------7-6-----------7-----7-------------  (Last three notes play every other time.)
D 0----------------9/7-5-7-4---5-4---5-7---4-5-4-
G -----------------------------------------------
D -----------------------------------------------


****************************

Guitar KEY:  h - hammer on
             p - pull-off
             / - slide up or down
             v - add vibrato

****************************

Great song on an amazing album, enjoy.
Comments