Sifl And Olly - Motherfuckin Pie Chords & Tabs

 

Motherfuckin Pie Chords & Tabs

Sifl And Olly Chords & Tabs

Version: 1 Type: Bass Tab 0 ratings
1 star 2 stars 3 stars 4 stars 5 stars
comments

Motherfuckin Pie Bass Tab

TS314

Sifl and Olly-Motherfuckin Pie

tuning: E standard

This is a fun song with a fairly simple bass part. It's just a bunch of variations on 
the same basic tune. Lots of room for improvisation. I'll just put down a few of the 
variations and it should be enough to give you the basic idea.

G|--7-7-7---------------------------------------7-7--|
D|0-------7-6-5---7-7-7-----5-7---5-5-5---5-2-0------|
A|--------------0-------0h7--------------------------|
E|------------------------------3-------3------------|


G|----7-7-7---------------------------------------------7-7-7--------|
D|0-0-------7-6-5-----7-7-7-----5-7-----5-5-5---5-2-0-0-------7-6-5--|
A|----------------0-0-------0h7--------------------------------------|
E|----------------------------------3-3-------3----------------------|

[ Tab from: http://www.guitartabs.cc/tabs/s/sifl_and_olly/motherfuckin_pie_btab.html ]
G|----7-7-7-----5-7---------------------------------------7-7-7-7--|
D|0-0-------0h7---------7-7-7-----5-7-----5-5-5---5-2-0-0----------|
A|------------------0-0-------0h7----------------------------------|
E|------------------------------------3-3-------3------------------|


G|----7-7-7-----7-------------------------------------------7-7-7-----7--|
D|0-0-------0h7---7-----7-7-7-----5-7-----5-5-5-----5-2-0-0-------0h7----|
A|------------------0-0-------0h7----------------------------------------|
E|------------------------------------3-3-------3h5----------------------|


There's a part in the song where the two start harmonizing while singing the word "pie" 
for a bit. The base does something a little different so here's that.

G|--7---7---7---7-----------------------------------7---7---7---7--|
D|0---0---0---0-----7---7---7---7---5---5---5---5-0---0---0---0----|
A|----------------0---0---0---0------------------------------------|
E|--------------------------------3---3---3---3--------------------|

G|--7---7---7---7-----------------------------------7-7-7-7-7--|
D|0---0---0---0-----7---7---7---7---5---5---5---5-0------------|
A|----------------0---0---0---0--------------------------------|
E|--------------------------------3---3---3---3----------------|

Hope this helps. Enjoy! Now i want some pie......
Comments