Side A - Hurt Chords & Tabs

 

Hurt Chords & Tabs

Side A Chords & Tabs

Version: 1 Type: Tab 0 ratings
1 star 2 stars 3 stars 4 stars 5 stars
comments

Hurt Tab

   
-----------------------------------------------------------------------------
			     Hurt - Side A
-----------------------------------------------------------------------------

Tabbed by: stringlizner
Email: stringlizner@yahoo.com

Tuning: standard
Intro:
e|--8--------8---------------------------------------------------------------|
B|--11-------11--------------------------------------------------------------|
G|--8--------8---------------------------------------------------------------|
D|--10-------10-------optional-to do this------------------------------------|
A|--8--------8--------bass---5h6\8--5h6p5h6\8-8-8-85h65h6\8-8-8-8-----------|
E|---------------------------------------------------------------------------|

Verse
e|----------------66-----------55--------------------66----------------------|
B|----------------66-----------66--------------------88----------------------|
G|----------------77-----------55--------------------77----------------------|
D|----------------88-----------77--------------------88----------------------|
A|----------------88-----------55--------------------66----------------------|
E|----------------66---------------------------------------------------------|
                  Bb           Dm7                   EbM7
Oh you said your mine       and I believe every single time

e|--33-----------------------------------66----------------------------------|
B|--44-----------------------------------66----------------------------------|
G|--33-----------------------------------77----------------------------------|
D|--55-----------------------------------88----------------------------------|
A|--33-----------------------------------88----------------------------------|
E|---------------------------------------66----------------------------------|
    Cm7                                  Bb
    Even though they say you're not my kind

e|--------33-------55----------8--8-----|----------------8--8----------------|
B|--------33-------66----------10-10----|----------------11-11---------------|
G|--------33-------55----------8--8-----|---last chord---9--9----------------|
D|--------55-------77----------10-10----|----------------10-10---------------|
A|--------55-------55----------8--8-----|----------------8--8----------------|
E|--------33----------------------------|------------------------------------|
          Gm       Dm7         Fsus7
 I just cant believe you're lying
[ Tab from: http://www.guitartabs.cc/tabs/s/side_a/hurt_tab.html ]
CHORUS
e|-------------88-------------------66-----------------88--------------66----|
B|-------------88-------------------88-----------------88--------------88----|
G|-------------77-------------------77-----------------77--------------77----|
D|-------------88-------------------88-----------------88--------------88----|
A|-------------88-------------------66-----------------88--------------66----|
E|-------------66--------------------------------------66--------------------|
               Bb                   EbM7               Bb              EbM7
  Would you hurt the one who loves you?    Would you hurt the man today?

e|-------------88-------------------66-----8--8------------------------------|
B|-------------88-------------------88-----10-10-----------------------------|
G|-------------77-------------------77-----8--8------------------------------|
D|-------------88-------------------88-----10-10-----------------------------|
A|-------------88-------------------66-----8--8------------------------------|
E|-------------66------------------------------------------------------------|

   Would you take the love you gave me away

BRIDG
e|-----------------66---------66----------------------44---------------------|
B|-----------------88---------77----------------------44---------------------|
G|-----------------77---------66----------------------55---------------------|
D|-----------------88---------88----------------------66---------------------|
A|-----------------66---------66----------------------66---------------------|
E|----------------------------------------------------44---------------------|
 No no noooo  oh I know I never never never know the truth

e|----44----------------------------------33---------------------------------|
B|----66----------------------------------44---------------------------------|
G|----55----------------------------------33---------------------------------|
D|----66----------------------------------55---------------------------------|
A|----44----------------------------------33---------------------------------|
E|---------------------------------------------------------------------------|
 Oh I love you too much girl just for you fun
e|--------33--------------------8--8-----------------------------------------|
B|--------44--------------------10-10----------------------------------------|
G|--------33--------------------8--8-----------------------------------------|
D|--------55--------------------9--10----------------------------------------|
A|--------33--------------------8--8-----------------------------------------|
E|---------------------------------------------------------------------------|
   I cant run no no no.. I cant run...
Comments