Side A - Forevermore Chords & Tabs

 

Forevermore Chords & Tabs

Side A Chords & Tabs

Version: 4 Type: Tab 1 rating
1 star 2 stars 3 stars 4 stars 5 stars
comments

Forevermore Tab

   
INTRO:

   E       E7         A(/C#)
----------------0-------- -----0---------0-- 
--------0--0-------0----- --0---------0----- 
-----1----------------2-- -----2---2-----2-- 
------------------------- --2---------2----- 
-----2-----5----------4-- ---------4-------- 
--0---------------------- ------------------ 

  E        E7
---------------0------- -------0--- 
--------0--0-----0----- ----0------ 
-----1--------------2-- -------2--- 
----------------------- ----2------ 
-----2-----5--------4-- ----------- 
--0-------------------- -----------

VERSES:
  There are times     when  i just  want to look  at your face     with
  E        B(/D#)        C#m7        E(/B)        A9
-----------------------------------------------0------------0----
--------0-----------4----5--------5---------0---------------0----
-----1-----------4-------------4---------1---------------2-------
--------------4-------------6-------------------------2----------
-----------6-------------4------------2------------0-------------
--0--------------------------------------------------------------

the stars in the night
 F#m7   Bsus4  B
----------------------- 
--------5-----4-------- 
--2--------------------
--2--------4-----------
--------2--------2--4-- 
--2-------------------- 

   There are times   when i just want  to feel your embrace
  E        B(/D#)       C#m7        E(/B)         A9
----------------------------------------------0-------------0----
--------0-----------7---5--------5---------0----------------0----
--1--2-----------4------------4---------1----------------2-------
--2-----------4------------6--------------------------2----------
-----------6------------4------------2-------------0-------------
--0--------------------------------------------------------------

In the cold night...
  F#m7      Bsus4 B
------------------------------ 
--------5---5-----4-----------
------------------------------ 
-----2---------4-----4/6------ 
------------2-----5----------- 
--2--------------------------- 

PRE-CHORUS:

             I just can't...       mine now..                 You were just
  C#m7           F#sus4    F#       B              A   G#m7   B7
--0--------0--------------------- -------------7------ ----- --7----
--0-----0------------------------ -----------------5-- --7-- --7----
-----1------------------4---3---- --7/8--------8---6-- --4-- --8----
---------------------2------2---- ----------9--------- ----- --7----
--------------------------------- -------9------------ ----- --9----
--4---------------2-------------- --6/7------------5-- --4-- --7----

a dream   that   I    once   knew               I never
  E           G#m7          A9
--------0-----------0----------------0-------------------------
-----------0-----------0-------------0-------------------------
--1--1--------4-------------------2----------------------------
--2--------------4-------------2-------------------------------
----------------------------0----------------------------------
--0-----------4------------------------------------------------

   thought   I would  be  right for you    I just can't
  E           G#m7         A              F#m7
--------0-----------0-----------0-----0------------------------
-----------0-----------0---1/2-----0------2----2---------------
--1-----------4---------------------------2----2---------------
--2--2--------4--4---------------------------------------------
-----------------------------0-----------------2---------------
--0-----------4--------------------4------2--------------------

 compare  you with   anything   in this world   You're ...   
  E7                       A9                     G#m7 C#m7 Fm7 Am/B 
--------0----------------------------0-----------------------------
---------------3-----3---------------0------0-----7----5----2---3--
-----2----------------------------2------2--------4----4----2---1--
----------2/4-----4------------2------------------4---------2------
------------------------2---0--------------------------4--------2--
--0-----------------------------------------------4---------2------

INTERLUDE:
[ Tab from: http://www.guitartabs.cc/tabs/s/side_a/forevermore_tab_ver_4.html ]
 E                             
-----------0-----------0---------------0-------------------
--------0-----0-----------0---------0----------------------
-----1-----------0---------------1--------1h2--4-----------
--------------------1--------------------------------------
-----------------------------------------------------------
--0---------------------------0----------------------------

  Time       and    again      there are these changes that we cannot
  C                    Bm7       Em        Am7        D
-----------0------0-----------------------------------------2----
-----------1------1----------3---------0----------1---------3----
--------0------0-------------2---------0----------0------2-------
-----2--------------------4---------2----------2------0----------
--3--------------------2--------------------0--------------------
---------------------------------0-------------------------------

have                 sure as times get's going         on  and
  G              /F#   Em       A7        D            G
-------------------------------------------2-----------------------
--------0h1--0------------------2----------3-----------3-----------
--------------------------------0----------2------------------------
-----0--0h2--0---------------2-------------0-----------5------5-----
--------------------------2-----0----2--4------------------5--------
--3---------------2----0-----------------------0---2---3------------

  on           my love ...      forevermore..
  C9              Am    D    B7
------3--3--3-----------2----2------
--3---3--3--3-----1-----3----4------
--5---5--5--5-----2----------2------
--5---5--5--5-----------0----4------
--3---3--3--3-----0----------2------
------------------------------------

CODA:

As endless as forever           our     love....     together        You're
  G#m7 C#m7  F#m7         B     A       G#m7  C#m7 Bbm dim5    B7/D A
------------------------------------------------------------0-------------
--7----5---------------2--4-----2-------7------5---------2------1---2-----
--4----4------2-----2-------------------4------4------1---------2---2-----
-----------------2-----------4-----2--------------------------------2-----
-------4------------------2-----0--------------4----2-----------0---------
--4-----------2--------------------------4--------------------------------

 all I need        to be         with      forevermore (as endless 
  G#m7  C#m7        F#m7        Am          G#m7         C#m7
----------------------------------------------------------------------
--7-----5--------------------2------------------------4--5--------5---
--4-----4------4----2-----2-----5--------5---4-----------------4------
------------6----------2--------------7------------4--------6---------
--------4--------------------------7------------6--------4------------
--4-----------------2-----------5------------4------------------------

 as   forever)       Ohh  (our love will stay
  F#m7         B      A       G#m7        C#m7
------------------------------------------------------ 
-----------2---4------2----------------4--5--------5-- 
--2-----2---------------------4-----------------4----- 
-----2------------4------2----4-----4--------6-------- 
---------------2------0----------5--------4-----------
--2---------------------------4----------------------- 

together)                  You're  all    I need    to be  with  forever-
  Bbm dim5     B7/A    A       G#m7        C#m7         F#m7       B7
-----------0------------------------------------------------------------
--------2------1-------2----------------7--5--------5---------------0---
-----1---------2---2---2--2----4-----------------4------2--------2--2---
-----------------------2-------4-----4--------6---------2-----2---------
--1------------0------------------6--------4---------------4--------2---
-------------------------------4------------------------2---------------

more...
 E        E7         A(/C#)
---------------0-------------0--------------------------0--------
--------0--0------0-------0--------------------------0--0--------
-----1---------------2-------2--------------------2-----2--------
--------------------------2--------------------4-----------------
-----2-----5---------4-------------------------------------------
--0-----------------------------------------0-----------0--------
Comments