Sick Shift - Upstairs Chords & Tabs

 

Upstairs Chords & Tabs

Sick Shift Chords & Tabs

Version: 1 Type: Tab 0 ratings
1 star 2 stars 3 stars 4 stars 5 stars
comments

Upstairs Tab

   
Sick Shift
Upstairs

hey whats up... my friend told me about sick shift and they are awesome. this song has
a sick guitar part and i just had to tab it...

drop d tuning (EBGDAD)

key:

 ^ = palm mute
(5)= ghost note
 b = bend
 r = release
 / = slide up
 \ = slide down 
 x = left hand mute
 h = hammer on
 p = pull-off

----------------------------------------------------------------------------
Guitar 1

intro

E|-------------------------------------------------------|
B|-------------------------------------------------------|
G|-------2-----------------------------------------------|
D|--1-1------5---4-5---4---4b(5)-4---5-5-7-5-5-7-5-7-----|
A|--2-2----2---2-----0---0-----------5-5---5-5---5-------| (x1)
D|-----------------------------------5-5---5-5---5---7~--|
    ^ ^    ^   ^     ^   ^           ^ ^   ^ ^   ^ 

E|----------------------------------------------------------|
B|------------22-222--333-333----------------333-------000--|
G|--44-444-4--22-222--444-444--333-333-3-44--444--000--000--|
D|--44-444-4-------------------444-444-4-44-------222-------|
A|----------------------------------------------------------| (x1)
D|----------------------------------------------------------|

E|---------------------------------|
B|--2-22-3-2-2-2-2\----------------|
G|--2-22-2-2-2-2-2\3-33-4-3-3-3-3--|
D|-----------------4-44-4-4-4-4-4--|
A|---------------------------------| (x1)
D|---------------------------------|
      ^^   ^   ^     ^^   ^   ^

E|----------------------------------------------------------|
B|------------22-222--333-333----------------333-------000--|
G|--44-444-4--22-222--444-444--333-333-3-44--444--000--000--|
D|--44-444-4-------------------444-444-4-44-------222-------|
A|----------------------------------------------------------| (x1)
D|----------------------------------------------------------|

E|--------------------------------------|
B|--2-22-3-2-2-2-2\---------------------|
G|--2-22-2-2-2-2-2\3-33-4-3-3-3-3--4-4--|
D|-----------------4-44-4-4-4-4-4--4-4--|
A|---------------------------------2-2--| (x1)
D|--------------------------------------|
      ^^   ^   ^     ^^   ^   ^     

E|----------------------------------|
B|-----r----------------------------|
G|--4--e--4-4~---44--666--777--999--|
D|--4--s--4-4~---xx--xxx--xxx--xxx--|
A|--2--t--2-2~---22--444--555--777--| (x1)
D|----------------------------------|

verse

E|--------------------------------------------|
B|--------------------------------------------|
G|--4-4-2-4---2-2---2--------------------2-2--|
D|--4-4-2-4---2-2-0-2---5-5-0-5---4-4--4-2-2--|
A|--2-2-0-2---0-0-0-0---5-5-0-5---4-4--4-0-0--| (x1)
D|----------------0-----5-5-0-5---4-4--4------|

E|--------------------------------------------|
B|--------------------------------------------|
G|--4-4-2-4---2-2---2-------------2-2--2------|
D|--4-4-2-4---2-2-0-2---5-5-0-5---2-2--2-4-4--|
A|--2-2-0-2---0-0-0-0---5-5-0-5---0-0--0-4-4--| (x1)
D|----------------0-----5-5-0-5----------4-4--|

E|--------------------------------------------------------------|
B|--------------------------------------------------------------|
G|--4-4------------2-2----------------------------------2-2--2--|
D|--4-4-0-4--4-5---2-2---2--4-5---5-5------4-5---4-4--4-2-2--2--|
A|--2-2------------0-0-0----------5-5---5--------4-4--4-0-0--0--| (x1)
D|--------------------------------5-5-5----------4-4--4---------|

E|--------------------------------------------------------------|
B|--------------------------------------------------------------|
G|--4-4------------2-2------------------------------------------|
D|--4-4-0-4--4-5---2-2---2--4-5---5-5------4-5---5-5--5-4-4--4--|
A|--2-2------------0-0-0----------5-5---5--------5-5--5-4-4--4--| (x1)
D|--------------------------------5-5-5----------5-5--5-4-4--4--|

chorus

E|---------------------------------------------------------------|
B|----------------3-3--3-----------------------------------------|
G|--4-4--4-4-4--4-x-x--x-4-4-------------------------------------|
D|--2-2--2-2-2--2-2-2--2-2-2---5-5-0-5-5-0-5-0--4-4-0-4-4-0-4-0--|
A|--2-2--2-2-2--2-2-2--2-2-2---5-5---5-5---5----4-4---4-4---4----| (x1)
D|--2-2--2-2-2--2-2-2--2-2-2---5-5---5-5---5----4-4---4-4---4----|
                               ^ ^   ^ ^   ^    ^ ^   ^ ^   ^

E|---------------------------------------------------------------|
B|----------------3-3--3-----------------------------------------|
G|--4-4--4-4-4--4-x-x--x-4-4-------------------------------------|
D|--2-2--2-2-2--2-2-2--2-2-2---5-5-4-5-5-4-5-4--4-4-4-4-4-4-4-4--|
A|--2-2--2-2-2--2-2-2--2-2-2---5-5---5-5---5----4-4---4-4---4----| (x1)
D|--2-2--2-2-2--2-2-2--2-2-2---5-5---5-5---5----4-4---4-4---4----|
                               ^ ^   ^ ^   ^    ^ ^   ^ ^   ^
*play this whole chorus two times

post-chorus

E|-------------------------------------------------------|
B|-------------------------------------------------------|
G|-------2-----------------------------------------------|
D|--1-1------5---4-5---4---4b(5)-4---5-5-7-5-5-7-5-7-----|
A|--2-2----2---2-----0---0-----------5-5---5-5---5-------| (x1)
D|-----------------------------------5-5---5-5---5---7~--|
    ^ ^    ^   ^     ^   ^           ^ ^   ^ ^   ^ 

E|----------------------------------------------------------|
B|------------22-222--333-333----------------333-------000--|
G|--44-444-4--22-222--444-444--333-333-3-44--444--000--000--|
D|--44-444-4-------------------444-444-4-44-------222-------|
A|----------------------------------------------------------| (x1)
D|----------------------------------------------------------|

E|---------------------------------|
B|--2-22-3-2-2-2-2\----------------|
G|--2-22-2-2-2-2-2\3-33-4-3-3-3-3--|
D|-----------------4-44-4-4-4-4-4--|
A|---------------------------------| (x1)
D|---------------------------------|
      ^^   ^   ^     ^^   ^   ^

E|----------------------------------------------------------|
B|------------22-222--333-333----------------333-------000--|
G|--44-444-4--22-222--444-444--333-333-3-44--444--000--000--|
D|--44-444-4-------------------444-444-4-44-------222-------|
A|----------------------------------------------------------| (x1)
D|----------------------------------------------------------|

E|-----------------------------------------------------------------|
B|--2-22-3-2-2-2-2\------------------------------------------------|
G|--2-22-2-2-2-2-2\3-33-4-3-3-3-3--------------22--4\-4\-4-4-4-4\--|
D|-----------------4-44-4-4-4-4-4--44--55--66--22--4\-4\-4-4-4-4\--|
A|---------------------------------44--55--66--00--2\-2\-2-2-2-2\--| (x1)
D|---------------------------------44--55--66----------------------|
      ^^   ^   ^     ^^   ^   ^   

verse

E|--------------------------------------------|
B|--------------------------------------------|
G|--4-4-2-4---2-2---2--------------------2-2--|
D|--4-4-2-4---2-2-0-2---5-5-0-5---4-4--4-2-2--|
A|--2-2-0-2---0-0-0-0---5-5-0-5---4-4--4-0-0--| (x1)
D|----------------0-----5-5-0-5---4-4--4------|

E|--------------------------------------------|
B|--------------------------------------------|
G|--4-4-2-4---2-2---2-------------2-2--2------|
D|--4-4-2-4---2-2-0-2---5-5-0-5---2-2--2-4-4--|
A|--2-2-0-2---0-0-0-0---5-5-0-5---0-0--0-4-4--| (x1)
D|----------------0-----5-5-0-5----------4-4--|

E|--------------------------------------------------------------|
B|--------------------------------------------------------------|
G|--4-4------------2-2----------------------------------2-2--2--|
D|--4-4-0-4--4-5---2-2---2--4-5---5-5------4-5---4-4--4-2-2--2--|
A|--2-2------------0-0-0----------5-5---5--------4-4--4-0-0--0--| (x1)
D|--------------------------------5-5-5----------4-4--4---------|

E|--------------------------------------------------------------|
B|--------------------------------------------------------------|
G|--4-4------------2-2---------------------------2-2--2---------|
D|--4-4-0-4--4-5---2-2---2--4-5---5-5------4-5---2-2--2-4-4--4--|
A|--2-2------------0-0-0----------5-5---5--------0-0--0-4-4--4--| (x1)
D|--------------------------------5-5-5-----------------4-4--4--|

chorus

E|---------------------------------------------------------------|
B|----------------3-3--3-----------------------------------------|
G|--4-4--4-4-4--4-x-x--x-4-4-------------------------------------|
D|--2-2--2-2-2--2-2-2--2-2-2---5-5-0-5-5-0-5-0--4-4-0-4-4-0-4-0--|
A|--2-2--2-2-2--2-2-2--2-2-2---5-5---5-5---5----4-4---4-4---4----| (x1)
D|--2-2--2-2-2--2-2-2--2-2-2---5-5---5-5---5----4-4---4-4---4----|
                               ^ ^   ^ ^   ^    ^ ^   ^ ^   ^

E|---------------------------------------------------------------|
B|----------------3-3--3-----------------------------------------|
G|--4-4--4-4-4--4-x-x--x-4-4-------------------------------------|
D|--2-2--2-2-2--2-2-2--2-2-2---5-5-4-5-5-4-5-4--4-4-4-4-4-4-4-4--|
A|--2-2--2-2-2--2-2-2--2-2-2---5-5---5-5---5----4-4---4-4---4----| (x1)
D|--2-2--2-2-2--2-2-2--2-2-2---5-5---5-5---5----4-4---4-4---4----|
                               ^ ^   ^ ^   ^    ^ ^   ^ ^   ^

E|---------------------------------------------------------------|
B|----------------3-3--3-----------------------------------------|
G|--4-4--4-4-4--4-x-x--x-4-4-------------------------------------|
D|--2-2--2-2-2--2-2-2--2-2-2---5-5-0-5-5-0-5-0--4-4-0-4-4-0-4-0--|
A|--2-2--2-2-2--2-2-2--2-2-2---5-5---5-5---5----4-4---4-4---4----| (x1)
D|--2-2--2-2-2--2-2-2--2-2-2---5-5---5-5---5----4-4---4-4---4----|
                               ^ ^   ^ ^   ^    ^ ^   ^ ^   ^

E|----------------------------|
B|----------------3-3--3------|
G|--4-4--4-4-4--4-x-x--x-4-4--|
D|--2-2--2-2-2--2-2-2--2-2-2--|
A|--2-2--2-2-2--2-2-2--2-2-2--| (x1)
D|--2-2--2-2-2--2-2-2--2-2-2--|

bridge/solo kinda part

E|-------------------------------------------------------------------|
B|-------------------------------------------------------------------|
G|--4-4---4-4---4---2-2---2-2---2-------------------2-2---2-2---2----|
D|--4-4-4-4-4-4-4-4-2-2-4-2-2-4-2-4-5-5-4-5-5-4-5-4-2-2-4-2-2-4-2-4--|
A|--2-2---2-2---2---0-0---0-0---0---5-5---5-5---5---0-0---0-0---0----| (x2)
D|----------------------------------5-5---5-5---5--------------------|
    ^ ^   ^ ^   ^   ^ ^   ^ ^   ^   ^ ^   ^ ^   ^   ^ ^   ^ ^   ^ 

E|-------------------------------------------------------------------|
B|-------------------------------------------------------------------|
G|--4-4-2-4-4-2-4-2-2-2-2-2-2-2-2-------2-----2---2-----2-----2---2--|
D|--4-4---4-4---4---2-2---2-2---2---5-5---5-5---5---4-4---4-4---4----|
A|--2-2---2-2---2---0-0---0-0---0---5-5---5-5---5---4-4---4-4---4----| (x2)
D|----------------------------------5-5---5-5---5---4-4---4-4---4----|
    ^ ^   ^ ^   ^   ^ ^   ^ ^   ^   ^ ^   ^ ^   ^   ^ ^   ^ ^   ^ 

E|-------------------------------------------------------------------|
B|-------------------------------------------------------------------|
G|--0-0-2-0-0-2-0-2-----2-----2---2-----2-----2---2-----2-----2---2--|
D|------------------4-4---4-4---4---2-2---2-2---2---0-0---0-0---0----|
A|-------------------------------------------------------------------| (x2)
D|-------------------------------------------------------------------|
    ^ ^   ^ ^   ^   ^ ^   ^ ^   ^   ^ ^   ^ ^   ^   ^ ^   ^ ^   ^ 

E|------2-----2---2-----2-----2---2-----2-----2---2-----2-----2---2--|
B|--0-0---0-0---0----------------------------------------------------|
G|------------------2-2---2-2---2---0-0---0-0---0--------------------|
D|--------------------------------------------------4-4---4-4---4----|
A|-------------------------------------------------------------------| (x2)
D|-------------------------------------------------------------------|
    ^ ^   ^ ^   ^   ^ ^   ^ ^   ^   ^ ^   ^ ^   ^   ^ ^   ^ ^   ^ 

E|------5-----5---5-----5-----5---5-----5-----5---5-----5-----5---5--|
B|--3-3---3-3---3---2-2---2-2---2---3-3---3-3---3---2-2---2-2---2----|
G|-------------------------------------------------------------------|
D|-------------------------------------------------------------------|
A|-------------------------------------------------------------------| (x1)
D|-------------------------------------------------------------------|
    ^ ^   ^ ^   ^   ^ ^   ^ ^   ^   ^ ^   ^ ^   ^   ^ ^   ^ ^   ^ 

outro
[ Tab from: http://www.guitartabs.cc/tabs/s/sick_shift/upstairs_tab.html ]
E|-----------------------------------------------------------|
B|-----------------------------------------------------------|
G|--4-4--4-4-4--4-2-2--2-2-2--2------------------------------|
D|--4-4--4-4-4--4-2-2--2-2-2--2-5-5--5-5-5--5-4-4--4-4-4--4--|
A|--2-2--2-2-2--2-0-0--0-0-0--0-5-5--5-5-5--5-4-4--4-4-4--4--| (x1)
D|------------------------------5-5--5-5-5--5-4-4--4-4-4--4--|

E|-------------------------------------------------------------|
B|-------------------------------------------------------------|
G|-------2------------------------------------------------4-4--|
D|--4-4------5---4-5---4---4b(5)-4---5-5-7-5-5-7-5-7------4-4--|
A|--2-2----2---2-----0---0-----------5-5---5-5---5--------2-2--| (x1)
D|-----------------------------------5-5---5-5---5---7~--------|
    ^ ^    ^   ^     ^   ^           ^ ^   ^ ^   ^ 

----------------------------------------------------------------------------
Guitar 2

intro

E|-------------------------------------------------------|
B|-------------------------------------------------------|
G|-------2-----------------------------------------------|
D|--4-4------5p4p2p0---4---4b(5)-4---5-5-7-5-5-7-5-7-----|
A|--2-2----2---------0---0-----------5-5---5-5---5-------| (x1)
D|-----------------------------------5-5---5-5---5---7~--|
    ^ ^    ^         ^   ^           ^ ^   ^ ^   ^ 

E|----------------------------------------------------------|
B|------------22-222--333-333----------------333-------000--|
G|--44-444-4--22-222--444-444--333-333-3-44--444--000--000--|
D|--44-444-4-------------------444-444-4-44-------222-------|
A|----------------------------------------------------------| (x1)
D|----------------------------------------------------------|

E|---------------------------------|
B|--2-22-3-2-2-2-2\----------------|
G|--2-22-2-2-2-2-2\3-33-4-3-3-3-3--|
D|-----------------4-44-4-4-4-4-4--|
A|---------------------------------| (x1)
D|---------------------------------|
      ^^   ^   ^     ^^   ^   ^

E|----------------------------------------------------------|
B|------------22-222--333-333----------------333-------000--|
G|--44-444-4--22-222--444-444--333-333-3-44--444--000--000--|
D|--44-444-4-------------------444-444-4-44-------222-------|
A|----------------------------------------------------------| (x1)
D|----------------------------------------------------------|

E|------------------------------------------------------------------|
B|--2-22-3-2-2-2-2\-------------------------------------------------|
G|--2-22-2-2-2-2-2\3-33-4-3-3-3-3------------------5-----4-----5-4--|
D|-----------------4-44-4-4-4-4-4------0-----2----------------------|
A|---------------------------------2-2---2-2---2-2---2-2---2-2------| (x1)
D|------------------------------------------------------------------|
      ^^   ^   ^     ^^   ^   ^    ^ ^   ^ ^   ^ ^   ^ ^   ^ ^

E|------------------7~----------------------------------------|
B|------------------------------------------------------------|
G|--------------------4-5-4------------------5-----4-----5-4--|
D|------1-----0------------------1-----0----------------------|
A|--2-2---2-2---2-2----------2-2---2-2---2-2---2-2---2-2------| (x1)
D|------------------------------------------------------------|
    ^ ^   ^ ^   ^ ^          ^ ^   ^ ^   ^ ^   ^ ^   ^ ^ 

E|----------------------------|
B|----------------------------|
G|-------------------4-4-4-4--|
D|------1-----0------4-4-4-4--|
A|--2-2---2-2---2-2--2-2-2-2--| (x1)
D|----------------------------|
    ^ ^   ^ ^   ^ ^  ^ ^ ^ ^ 

verse

E|--------------------------------------------|
B|--------------------------------------------|
G|--4-4-2-4---2-2---2--------------------2-2--|
D|--4-4-2-4---2-2-0-2---5-5-0-5---4-4--4-2-2--|
A|--2-2-0-2---0-0-0-0---5-5-0-5---4-4--4-0-0--| (x1)
D|----------------0-----5-5-0-5---4-4--4------|

E|--------------------------------------------|
B|--------------------------------------------|
G|--4-4-2-4---2-2---2-------------2-2--2------|
D|--4-4-2-4---2-2-0-2---5-5-0-5---2-2--2-4-4--|
A|--2-2-0-2---0-0-0-0---5-5-0-5---0-0--0-4-4--| (x1)
D|----------------0-----5-5-0-5----------4-4--|

E|--------------------------------------------------------------|
B|--------------------------------------------------------------|
G|--4-4------------2-2----------------------------------2-2--2--|
D|--4-4-0-4--4-5---2-2---2--4-5---5-5------4-5---4-4--4-2-2--2--|
A|--2-2------------0-0-0----------5-5---5--------4-4--4-0-0--0--| (x1)
D|--------------------------------5-5-5----------4-4--4---------|

E|--------------------------------------------------------------|
B|--------------------------------------------------------------|
G|--4-4------------2-2------------------------------------------|
D|--4-4-0-4--4-5---2-2---2--4-5---5-5------4-5---5-5--5-4-4--4--|
A|--2-2------------0-0-0----------5-5---5--------5-5--5-4-4--4--| (x1)
D|--------------------------------5-5-5----------5-5--5-4-4--4--|

chorus

E|---------------------------------------------------------------|
B|----------------3-3--3-----------------------------------------|
G|--4-4--4-4-4--4-x-x--x-4-4-------------------------------------|
D|--2-2--2-2-2--2-2-2--2-2-2---5-5-0-5-5-0-5-0--4-4-0-4-4-0-4-0--|
A|--2-2--2-2-2--2-2-2--2-2-2---5-5---5-5---5----4-4---4-4---4----| (x4)
D|--2-2--2-2-2--2-2-2--2-2-2---5-5---5-5---5----4-4---4-4---4----|
                               ^ ^   ^ ^   ^    ^ ^   ^ ^   ^

post-chorus

E|----------------------------------------------------------|
B|------------22-222--333-333----------------333-------000--|
G|--44-444-4--22-222--444-444--333-333-3-44--444--000--000--|
D|--44-444-4-------------------444-444-4-44-------222-------|
A|----------------------------------------------------------| (x1)
D|----------------------------------------------------------|

E|---------------------------------|
B|--2-22-3-2-2-2-2\----------------|
G|--2-22-2-2-2-2-2\3-33-4-3-3-3-3--|
D|-----------------4-44-4-4-4-4-4--|
A|---------------------------------| (x1)
D|---------------------------------|
      ^^   ^   ^     ^^   ^   ^

E|----------------------------------------------------------|
B|------------22-222--333-333----------------333-------000--|
G|--44-444-4--22-222--444-444--333-333-3-44--444--000--000--|
D|--44-444-4-------------------444-444-4-44-------222-------|
A|----------------------------------------------------------| (x1)
D|----------------------------------------------------------|

E|-----------------------------------------------------------------|
B|--2-22-3-2-2-2-2\------------------------------------------------|
G|--2-22-2-2-2-2-2\3-33-4-3-3-3-3--------------22--4\-4\-4-4-4-4\--|
D|-----------------4-44-4-4-4-4-4--44--55--66--22--4\-4\-4-4-4-4\--|
A|---------------------------------44--55--66--00--2\-2\-2-2-2-2\--| (x1)
D|---------------------------------44--55--66----------------------|
      ^^   ^   ^     ^^   ^   ^   

verse

E|--------------------------------------------|
B|--------------------------------------------|
G|--4-4-2-4---2-2---2--------------------2-2--|
D|--4-4-2-4---2-2-0-2---5-5-0-5---4-4--4-2-2--|
A|--2-2-0-2---0-0-0-0---5-5-0-5---4-4--4-0-0--| (x1)
D|----------------0-----5-5-0-5---4-4--4------|

E|------------------------------------------------|
B|------------------------------------------------|
G|--4-4-2-4---2-2---2-------777777-10101010-9999--|
D|--4-4-2-4---2-2-0-2---5-5-xxxxxx--x-x-x-x-xxxx--|
A|--2-2-0-2---0-0-0-0---5-5-555555--9-9-9-9-7777--| (x1)
D|----------------0-----5-5-----------------------|

E|--------------------------------------------------------------|
B|--------------------------------------------------------------|
G|--4-4------------2-2----------------------------------2-2--2--|
D|--4-4-0-4--4-5---2-2---2--4-5---5-5------4-5---4-4--4-2-2--2--|
A|--2-2------------0-0-0----------5-5---5--------4-4--4-0-0--0--| (x1)
D|--------------------------------5-5-5----------4-4--4---------|

E|--------------------------------------------------------------|
B|--------------------------------------------------------------|
G|--4-4------------2-2---------------------------2-2--2---------|
D|--4-4-0-4--4-5---2-2---2--4-5---5-5------4-5---2-2--2-4-4--4--|
A|--2-2------------0-0-0----------5-5---5--------0-0--0-4-4--4--| (x1)
D|--------------------------------5-5-5-----------------4-4--4--|

chorus

E|---------------------------------------------------------------|
B|----------------3-3--3-----------------------------------------|
G|--4-4--4-4-4--4-x-x--x-4-4-------------------------------------|
D|--2-2--2-2-2--2-2-2--2-2-2---5-5-0-5-5-0-5-0--4-4-0-4-4-0-4-0--|
A|--2-2--2-2-2--2-2-2--2-2-2---5-5---5-5---5----4-4---4-4---4----| (x3)
D|--2-2--2-2-2--2-2-2--2-2-2---5-5---5-5---5----4-4---4-4---4----|
                               ^ ^   ^ ^   ^    ^ ^   ^ ^   ^

E|----------------------------|
B|----------------3-3--3------|
G|--4-4--4-4-4--4-x-x--x-4-4--|
D|--2-2--2-2-2--2-2-2--2-2-2--|
A|--2-2--2-2-2--2-2-2--2-2-2--| (x1)
D|--2-2--2-2-2--2-2-2--2-2-2--|

bridge/solo kinda part

E|-------------------------------------------------------------------|
B|-------------------------------------------------------------------|
G|--4-4---4-4---4---2-2---2-2---2-------------------2-2---2-2---2----|
D|--4-4-4-4-4-4-4-4-2-2-4-2-2-4-2-4-5-5-4-5-5-4-5-4-2-2-4-2-2-4-2-4--|
A|--2-2---2-2---2---0-0---0-0---0---5-5---5-5---5---0-0---0-0---0----| (x2)
D|----------------------------------5-5---5-5---5--------------------|
    ^ ^   ^ ^   ^   ^ ^   ^ ^   ^   ^ ^   ^ ^   ^   ^ ^   ^ ^   ^ 

E|-------------------------------------------------------------------|
B|-------------------------------------------------------------------|
G|--4-4-2-4-4-2-4-2-2-2-2-2-2-2-2-------2-----2---2-----2-----2---2--|
D|--4-4---4-4---4---2-2---2-2---2---5-5---5-5---5---4-4---4-4---4----|
A|--2-2---2-2---2---0-0---0-0---0---5-5---5-5---5---4-4---4-4---4----| (x2)
D|----------------------------------5-5---5-5---5---4-4---4-4---4----|
    ^ ^   ^ ^   ^   ^ ^   ^ ^   ^   ^ ^   ^ ^   ^   ^ ^   ^ ^   ^ 

E|-------------------------------------------------------------------|
B|-------------------------------------------------------------------|
G|--0-0-2-0-0-2-0-2-----2-----2---2-----2-----2---2-----2-----2---2--|
D|------------------4-4---4-4---4---2-2---2-2---2---0-0---0-0---0----|
A|-------------------------------------------------------------------| (x2)
D|-------------------------------------------------------------------|
    ^ ^   ^ ^   ^   ^ ^   ^ ^   ^   ^ ^   ^ ^   ^   ^ ^   ^ ^   ^ 

E|------2-----2---2-----2-----2---2-----2-----2---2-----2-----2---2--|
B|--0-0---0-0---0----------------------------------------------------|
G|------------------2-2---2-2---2---0-0---0-0---0--------------------|
D|--------------------------------------------------4-4---4-4---4----|
A|-------------------------------------------------------------------| (x2)
D|-------------------------------------------------------------------|
    ^ ^   ^ ^   ^   ^ ^   ^ ^   ^   ^ ^   ^ ^   ^   ^ ^   ^ ^   ^ 

E|------5-----5---5-----5-----5---5-----5-----5---5-----5-----5---5--|
B|--3-3---3-3---3---2-2---2-2---2---3-3---3-3---3---2-2---2-2---2----|
G|-------------------------------------------------------------------|
D|-------------------------------------------------------------------|
A|-------------------------------------------------------------------| (x1)
D|-------------------------------------------------------------------|
    ^ ^   ^ ^   ^   ^ ^   ^ ^   ^   ^ ^   ^ ^   ^   ^ ^   ^ ^   ^ 

outro

E|-----------------------------------------------------------|
B|-----------------------------------------------------------|
G|--4-4--4-4-4--4-2-2--2-2-2--2------------------------------|
D|--4-4--4-4-4--4-2-2--2-2-2--2-5-5--5-5-5--5-4-4--4-4-4--4--|
A|--2-2--2-2-2--2-0-0--0-0-0--0-5-5--5-5-5--5-4-4--4-4-4--4--| (x1)
D|------------------------------5-5--5-5-5--5-4-4--4-4-4--4--|

E|-------------------------------------------------------------|
B|-------------------------------------------------------------|
G|-------2------------------------------------------------4-4--|
D|--4-4------5p4p2p0---4---4b(5)-4---5-5-7-5-5-7-5-7------4-4--|
A|--2-2----2---------0---0-----------5-5---5-5---5--------2-2--| (x1)
D|-----------------------------------5-5---5-5---5---7~--------|
    ^ ^    ^         ^   ^           ^ ^   ^ ^   ^ 


ok there you go... i hope you like it... the whole tab is in order so just read it down
the whole way for the order of the song. if you have any comments or questions you can
e-mail me at killinginthename247@yahoo.com.
Comments